» » »

Underoath, Cries Of The Past Bass tabs (ver.1)

Artists:  A B C D E F G H I J K L M N O P Q R S T U V W X Y Z # 

Cries Of The Past Bass tabs (ver.1)

Underoath Tabs
Rating:
0/5 (0 votes)
Cries Of The Past lessons Tabs too difficult? Try these video lessons and learn fast
                CRIES OF THE PAST (Bassline)
As recorded by Underoath
(From the 2000 Album CRIES OF THE PAST)

	

Words and Music by Underoath
Arranged by Underoath

Gtr I (D A D G) - 'Untitled'

 Intro
  Q=85
 4/4
  Gtr I
  Wx4          W          W
|------------|----------|------|
|------------|----------|------|
|------------|----------|------|
|------------|----------|------|


    W          +W           W          +W
||-----------|------------|----------|---------||
||o----------|------------|----------|--------o||
||o----------|------------|----------|--------o||
||--7--------|-(7)--------|-3--------|-(3)-----||


    Q=154
    E E H.        E E H.        E E H.        E E H.
||--------------|-------------|-------------|-----------|
||o-------------|-------------|-------------|-----------|
||o-------------|-------------|-------------|-----------|
||--7-7-7-------|-7-7-7-------|-7-7-7-------|-7-7-7-----|


  1.,2.,3.
  E E H.        E E H.        E E H.        E E H.     4x
|-------------|-------------|-------------|------------||
|-------------|-------------|-------------|-----------o||
|-------------|-------------|-------------|-----------o||
|-3-3-3-------|-3-3-3-------|-3-3-3-------|-3-3-3------||


  4.
  Wx4
|--------|
|--------|
|--------|
|--------|


   Verse
    E E H.         E  E H.        E E H    E   E    +Q.      H     +E
||--------------|---------------|----------------|------------------------||
||o-------------|---------------|----------------|-----------------------o||
||o-------------|---------------|----------------|-----------------------o||
||--7-7---------|-10-10---------|-3-3--------/12-|-(12)\---/12----(12)\---||


  E E H.         E  E H.        E E H.        W
|-------------|---------------|-------------|------|
|-------------|---------------|-------------|------|
|-------------|---------------|-------------|------|
|-7-7---------|-10-10---------|-3-3---------|------|


  E E H.         E  E H.        E E Q    H         H       H
|-------------|---------------|----------------|-----------------|
|-------------|---------------|----------------|-----------------|
|-------------|---------------|----------------|-----------------|
|-7-7---------|-10-10---------|-3-3----/12\----|-/12\----/12\----|


  Q=144
  Q  E E Q  E E    Q   E  E  Q   E  E   Q  E E Q  E E   Q  E E Q  E E
|---------------|---------------------|---------------|---------------|
|---------------|---------------------|---------------|---------------|
|---------------|---------------------|---------------|---------------|
|-7--7-7-7--7-7-|-10--10-10-10--10-10-|-3--3-3-3--3-3-|-3--3-3-3--3-3-|


                     |--3--|  |--3--|  |--3--|  |--3--|
    Q  E E Q  E E    E  E  E  E  E  E  E  E  E  E  E  E
||----------------|-------------------------------------|
||o---------------|-------------------------------------|
||o---------------|-------------------------------------|
||--7--7-7-7--7-7-|-10-10-10-10-10-10-10-10-10-10-10-10-|


  Q  E E Q  E E   Q  E E Q  E E   3x
|---------------|-----------------||
|---------------|----------------o||
|---------------|----------------o||
|-3--3-3-3--3-3-|-3--3-3-3--3-3---||


 Bridge
  Q=219
  Wx4
|--------|
|--------|
|--------|
|--------|


    |-3-|     |-3-|
    E E E E E E E E E E    Q    Q   H
||----------------------|----------------|
||o---------------------|----------------|
||o---------------------|----------------|
||--0-0-0-0---0-0-0-0---|-/8--/10--\6----|


  |-3-|     |-3-|
  E E E E E E E E E E    Q    Q   H
|---------------------|-----------------||
|---------------------|----------------o||
|---------------------|----------------o||
|-0-0-0-0---0-0-0-0---|-/8--/10--\6-----||


 Strings Interlude
  Q=98
  >
  W          +W           +W           +W           Wx5
|----------|------------|------------|------------|--------|
|----------|------------|------------|------------|--------|
|----------|------------|------------|------------|--------|
|-0--------|-(0)--------|-(0)--------|-(0)--------|--------|


   Interlude
    Q=219
     PM------|     PM------|       PM------|     PM------|
     |--3--|       |--3--|         |--3--|       |--3--|
     E  E  E  E E  E  E  E  E E    E  E  E  E E  E  E  E  E E
||------------------------------|-----------------------------|
||o-----------------------------|-----------------------------|
||o-----------------------------|-----------------------------|
||--10-10-10-10---10-10-10-10---|-10-10-10-10---10-10-10-10---|


   PM------|     PM------|       PM------|     PM------|
   |--3--|       |--3--|         |--3--|       |--3--|
   E  E  E  E E  E  E  E  E E    E  E  E  E E  E  E  E  E E
|-----------------------------|-----------------------------|
|-----------------------------|-----------------------------|
|-----------------------------|-----------------------------|
|-10-10-10-10---10-10-10-10---|-10-10-10-10---10-10-10-10---|


   PM------|     PM------|       PM------|     PM------|
   |--3--|       |--3--|         |--3--|       |--3--|
   E  E  E  E E  E  E  E  E E    E  E  E  E E  E  E  E  E E
|-----------------------------|-----------------------------|
|-----------------------------|-----------------------------|
|-----------------------------|-----------------------------|
|-14-14-14-14---14-14-14-14---|-14-14-14-14---14-14-14-14---|


   PM------|     PM------|       PM------|     PM------|
   |--3--|       |--3--|         |--3--|       |--3--|
   E  E  E  E E  E  E  E  E E    E  E  E  E E  E  E  E  E E
|-----------------------------|-------------------------------||
|-----------------------------|------------------------------o||
|-----------------------------|------------------------------o||
|-14-14-14-14---14-14-14-14---|-14-14-14-14---14-14-14-14-----||


   Verse
    Q=176
     E  E  E  E  E  E  E  E    E  E  E  E  E  E  E  E
||--------------------------|-------------------------|
||o-------------------------|-------------------------|
||o-------------------------|-------------------------|
||--10-10-10-10-10-10-10-10-|-10-10-10-10-10-10-10-10-|


   E  E  E  E  E  E  E  E    E  E  E  E  E  E  E  E
|-------------------------|--------------------------|
|-------------------------|--------------------------|
|-------------------------|--------------------------|
|-10-10-10-10-10-10-10-10-|-10-10-10-10-10-10-10-10--|


   E  E  E  E  E  E  E  E    E  E  E  E  E  E  E  E
|-------------------------|-------------------------|
|-------------------------|-------------------------|
|-------------------------|-------------------------|
|-14-14-14-14-14-14-14-14-|-14-14-14-14-14-14-14-14-|


   E  E  E  E  E  E  E  E    E  E  E  E  E  E  E  E
|-------------------------|--------------------------||
|-------------------------|-------------------------o||
|-------------------------|-------------------------o||
|-14-14-14-14-14-14-14-14-|-14-14-14-14-14-14-14-14--||


    Q=219
     PM------|     PM------|       PM------|     PM------|
     |--3--|       |--3--|         |--3--|       |--3--|
     E  E  E  E E  E  E  E  E E    E  E  E  E E  E  E  E  E E
||------------------------------|-----------------------------|
||o-----------------------------|-----------------------------|
||o-----------------------------|-----------------------------|
||--10-10-10-10---10-10-10-10---|-10-10-10-10---10-10-10-10---|


   PM------|     PM------|       PM------|     PM------|
   |--3--|       |--3--|         |--3--|       |--3--|
   E  E  E  E E  E  E  E  E E    E  E  E  E E  E  E  E  E E
|-----------------------------|-----------------------------|
|-----------------------------|-----------------------------|
|-----------------------------|-----------------------------|
|-10-10-10-10---10-10-10-10---|-10-10-10-10---10-10-10-10---|


   PM------|     PM------|       PM------|     PM------|
   |--3--|       |--3--|         |--3--|       |--3--|
   E  E  E  E E  E  E  E  E E    E  E  E  E E  E  E  E  E E
|-----------------------------|-----------------------------|
|-----------------------------|-----------------------------|
|-----------------------------|-----------------------------|
|-14-14-14-14---14-14-14-14---|-14-14-14-14---14-14-14-14---|


   PM------|     PM------|       PM------|     PM------|
   |--3--|       |--3--|         |--3--|       |--3--|
   E  E  E  E E  E  E  E  E E    E  E  E  E E  E  E  E  E E
|-----------------------------|-------------------------------||
|-----------------------------|------------------------------o||
|-----------------------------|------------------------------o||
|-14-14-14-14---14-14-14-14---|-14-14-14-14---14-14-14-14-----||


 Drum Solo
  Q=189
  Q  H.        Wx3
|------------|--------|
|------------|--------|
|------------|--------|
|-0----------|--------|


 Interlude
  Wx11          H      E  E  E  E
|-------------|-------------------|
|-------------|-------------------|
|-------------|------/10-10-10-10-|
|-------------|-------------------|


    |-3-| |-3-|           |-3-| |-3-|
    E E E E E E E E E E   E E E E E E E E E E
||----------------------|---------------------|
||o---------------------|---------------------|
||o-------------8-------|-------------7-------|
||--0-0-0-0-0-0---0-0-0-|-0-0-0-0-0-0---0-0-0-|


  |-3-| |-3-|           |-3-| |-3-|
  E E E E E E E E E E   E E E E E E   E  E  E  E
|---------------------|-----------------------------||
|---------------------|----------------------------o||
|-------------5-------|-------------/10-10-10-10---o||
|-0-0-0-0-0-0---0-0-0-|-0-0-0-0-0-0-----------------||


 Verse
  H    Q.   E   +E  E Q  E Q  E   H    Q.   E   +E  E Q  E Q  E
|-------------|-----------------|-------------|------------------|
|-------------|-----------------|-------------|------------------|
|-------------|-----------------|-------------|------------------|
|-8----8----8-|-(8)-8-8--8-8--8-|-7----7----7-|-(7)-7-7--7-7--7--|


  H    Q.   E   +E  E Q  E Q  E   E E E Q.   E E   E Q.   H
|-------------|-----------------|----------------|--------------|
|-------------|-----------------|----------------|--------------|
|-------------|-----------------|----------------|--------------|
|-8----8----8-|-(8)-8-8--8-8--8-|-7-7-7-7----7-7-|-7-7----2/----|


  H    Q.   E   +E  E Q  E Q  E   H    Q.   E   +E  E Q  E Q  E
|-------------|-----------------|-------------|------------------|
|-------------|-----------------|-------------|------------------|
|-------------|-----------------|-------------|------------------|
|-8----8----8-|-(8)-8-8--8-8--8-|-7----7----7-|-(7)-7-7--7-7--7--|


  H    Q.   E   +E  E Q  E Q  E   E E E Q.   E E   E Q.   H
|-------------|-----------------|----------------|--------------|
|-------------|-----------------|----------------|--------------|
|-------------|-----------------|----------------|--------------|
|-8----8----8-|-(8)-8-8--8-8--8-|-7-7-7-7\---7-7-|-7-7\---1s====|


    Q  E Q  E Q    +E  E Q  E E Q    Q  E Q  E Q    +E  E Q  E E Q   4x
||---------------|-----------------|--------------|------------------||
||o--------------|-----------------|--------------|-----------------o||
||o--------------|-----------------|--------------|-----------------o||
||--9--9-9--9-9--|-(9)-9-9--9-9-9--|-5--5-5--5-5--|-(5)-5-5--5-5-5---||


 Bridge
  E H..         W          W          W
|-------------|----------|----------|------|
|-------------|----------|----------|------|
|-------------|----------|----------|------|
|-0-----------|----------|----------|------|


   Verse
    Q  E E Q  E E   Q  E E E  E Q    Q  E E Q  E E   Q  E E E E Q
||----------------|----------------|---------------|---------------|
||o---------------|----------------|---------------|---------------|
||o---------------|----------------|---------------|---------------|
||--6--6-6-6--6-6-|-6--6-6-6-10-6--|-5--5-5-5--5-5-|-5--5-5-5-3-3--|


  1.,2.
  E E E E E E E E   E E E E E E E E   E E E E E E E E   E E E E E E E E   3x
|-----------------|-----------------|-----------------|-------------------||
|-----------------|-----------------|-----------------|------------------o||
|-----------------|-----------------|-----------------|------------------o||
|-0-0-0-0-0-0-0-0-|-0-0-0-0-0-0-0-0-|-0-0-0-0-0-0-0-0-|-0-0-0-0-0-0-0-0---||


 Bridge
  3.                    Q=170
  Q  H.        W          W          W
|------------|----------|----------|------|
|------------|----------|----------|------|
|------------|----------|----------|------|
|-0----------|----------|----------|------|


   Breakdown
          |-3-| |-3-|         |-3-|            |-3-| |-3-|         |-3-|
    q  q  E E E E E E   q  q  E E E Q    q  q  E E E E E E   q  q  E E E Q    4x
||--------------------|----------------|-------------------|------------------||
||o-------------------|----------------|-------------------|-----------------o||
||o-------------------|----------------|-------------------|-----------------o||
||--0--0--0-0-0-0-0-0-|-0--0--7h8p7-5--|-0--0--0-0-0-0-0-0-|-0--0--7h8p7-4----||


  |-3-| |-3-| |-3-| |-3-|
  E E E E E E E E E E E E   q  q  q  q
|-------------------------|-------------|
|-------------------------|-------------|
|-3-3-3-6-6-6-4-4-4-1-1-1-|-------------|
|-------------------------|-3--6--4--1--|


 Bridge
  Q  H.        Wx7
|------------|--------|
|------------|--------|
|------------|--------|
|-0----------|--------|


   Verse
    E E E Q.   E E   E E  E  E E E E E   E E E Q.   E E   E E  E  E E E E E  4x
||-----------------|-------------------|----------------|--------------------||
||o----------------|-------------------|----------------|-------------------o||
||o----------------|-----10----6---7---|----------------|-----10----6---7---o||
||--0-0-0------0-0-|-0-0----11---7---8-|-0-0-0------0-0-|-0-0----11---7---8--||


  Q  H.        W
|------------|------|
|------------|------|
|------------|------|
|-0----------|------|


    E E E Q  E Q    E E E Q  E Q    E E E Q  E Q    E E E Q  E Q
||----------------|---------------|---------------|---------------|
||o---------------|---------------|---------------|---------------|
||o---------------|---------------|---------------|---------------|
||--0-0-0-0--0-0--|-0-0-0-0--0-0--|-3-3-3-3--3-3--|-3-3-3-3--3-3--|


  1.
  E Q  E E Q  E   E Q  E E E E E   E E E Q  E Q    E E E Q  E Q
|---------------|----------------|---------------|-----------------||
|---------------|----------------|---------------|----------------o||
|---------------|----------------|---------------|----------------o||
|-3-3--3-3-3--3-|-3-3--3-3-3-3-3-|-0-0-0-0--0-0--|-0-0-0-0--0-0----||


  2.
                                   PM--|    PM--|      PM--|    PM--|
                                   |-3-|    |-3-|      |-3-|    |-3-|
  E Q  E E Q  E   E Q  E E E E E   E E E Q  E E E Q    E E E Q  E E E Q
|---------------|----------------|-------------------|---------------------|
|---------------|----------------|-------------------|---------------------|
|---------------|----------------|-------------------|---------------------|
|-3-3--3-3-3--3-|-3-3--3-3-3-3-3-|-1-1-1-1--1-1-1-1--|-3-3-3-3--5-5-5-5----|


    E E E Q  E Q    E E E Q  E Q    E E E Q  E Q    E E E Q  E Q   4x
||----------------|---------------|---------------|----------------||
||o---------------|---------------|---------------|---------------o||
||o---------------|---------------|---------------|---------------o||
||--1-1-1-1--1-1--|-1-1-1-1--1-1--|-3-3-3-3--3-3--|-3-3-3-3--3-3---||


  Q  H.        W          Q  H.
|------------|----------|----------|
|------------|----------|----------|
|------------|----------|----------|
|-0----------|----------|-0--------|


 Outro
  Q=158
  Wx30
|---------*|
|---------*|
|---------*|
|---------*|



Duration Legend
---------------
W - whole; H - half; Q - quarter; E - 8th; S - 16th; T - 32nd; X - 64th; a - acciaccatura
+ - note tied to previous; . - note dotted; .. - note double dotted
Uncapitalized letters represent notes that are staccato (1/2 duration)
Irregular groupings are notated above the duration line
Duration letters will always appear directly above the note/fret number it represents the
duration for.  Duration letters with no fret number below them represent rests.  Multi-
bar rests are notated in the form Wxn, where n is the number of bars to rest for.  Low
melody durations appear below the staff

Tablature Legend
----------------
 h   - hammer-on
 p   - pull-off
 b   - bend
 pb  - pre-bend
 r   - bend release (if no number after the r, then release immediately)
 /\  - slide into or out of (from/to "nowhere")
 s   - legato slide
 S   - shift slide
 - natural harmonic
[n]  - artificial harmonic
n(n) - tapped harmonic
 ~   - vibrato
 tr  - trill
 T   - tap
 TP  - trem. picking
 PM  - palm muting
\n/  - tremolo bar dip; n = amount to dip
 \n  - tremolo bar down
 n/  - tremolo bar up
/n\  - tremolo bar inverted dip
 =   - hold bend; also acts as connecting device for hammers/pulls
 <> - volume swell (louder/softer)
 x   - on rhythm slash represents muted slash
 o   - on rhythm slash represents single note slash

Misc Legend
-----------
 |  - bar
||  - double bar
||o - repeat start
o|| - repeat end
*|  - double bar (ending)
 :  - bar (freetime)
 $  - Segno
 &  - Coda
Tempo markers -  = BPM(8/16=s8/s16), where s8 = swing 8ths, s16 = swing 16ths
            

comments powered by Disqus
↑ Back to top | Underoath Bass for Cries Of The Past. Lyrics for acoustic guitar and electric guitar. Tablatures and chords are parodies/interpretations of the original songs. You may use it for private study, scholarship, research or language learning purposes only