>
 >
Coming Down Is Calming Down

Coming Down Is Calming Down Bass Tabs

Underoath - Coming Down Is Calming Down chords, tabs, tablatures, lyrics

Guitar lessons | Add/correct | Request | Top 50 tabs Artists:  A B C D E F G H I J K L M N O P Q R S T U V W X Y Z 0-9

Coming Down Is Calming Down Bass Tabs – Underoath

CD, Sheet music, Poster

Do you like Coming Down Is Calming Down? Share with your friends now
Bass TabsBass Tabs v2


 Tuning:Drop D

 Verse x3
G|------------------------------|
D|------------------------------|
A|------------------------------|
D|0-0---0-----0-0--0-0----------|

 x4
G|--------------------|
D|--------------------|
A|11-0-11-0-0-0-------|
D|--------------------|

 x1
G|---------|
D|---------|
A|3-3/0----|
D|---------|

 x1
G|--------------------------------|
D|--------------------------------|
A|--------------------------------|
D|0-0~-----0-0~-------00-0-0~-----|

 Pre-Chorus x2
G|-------------|
D|-------------|
A|-------------|
D|8~----5~-----|

 Chorus
G|----------------------------------------------|
D|-------7--------------------------------------|
A|5-55-5---5-5/12-5-5/12-5----------------------|
D|-------------------------7-7-77-3-3-3h5-5-----|

G|----------------------------------------------------------|
D|-------7--------------------------------------------------|
A|5-55-5---5-5/12-5-5/12-5----------------------------------|
D|-------------------------77777777-88888888-555555555555---|
 
 x1
G|---------------------------|
D|---------------------------|
A|---------------------------|
D|0/-000--0-0-0-----0--------|

 x2
G|-------------------------------------------------------------|
D|-------------------------------------------------------------|
A|-------------------------------------------------------------|
D|0000000000000000-7777777777777777-5555555555555555-----------|
 
 x1
G|--------------------|----------------------------------|
D|--------------------|----------------------------------|
A|--------------------|----------------------------------|
D|0-0-----0-----0-0---|0-0-------0-----0-0---0-0-0-0-----|


G|--------------------------------|--------------------------|
D|--------------------------------|--------------------------|
A|--------------------------------|--------------------------|
D|0-----0-----0-0----0-0-000--0---|0------0-0----0-0-0-0~----|

 Chorus
G|----------------------------------------------|
D|-------7--------------------------------------|
A|5-55-5---5-5/12-5-5/12-5----------------------|
D|-------------------------7-7-77-3-3-3h5-5-----|

G|----------------------------------------------------------|
D|-------7--------------------------------------------------|
A|5-55-5---5-5/12-5-5/12-5----------------------------------|
D|-------------------------77777777-88888888-555555555555---|


 Bridge x4
G|-----------------------------|
D|-----------------------------|
A|-----------------------------|
D|0~-----8-7~----3~----5~------|

 Outro x8
G|--------------|
D|--------------|
A|--------------|
D|8-5-7-77-7----|





Comments


Popular Underoath tabs & chords
A Fault Line, A Fault Of Mine Bass Tabs
Desperate Times, Desperate Measures Bass Tabs
Youre So Intricate Bass Tabs
Some Will Seek Forgiveess Others Escape Chords
Acts Of Depression Tabs
Down Set Go 1 Tabs
Emergency Broadcast / The End Is Near Tabs
Innocence Stolen (Intro) Tabs
Too Bright To See Too Loud To Hear Intro Tabs
Reinventing Your Exit 2 Ukulele


Song lyrics



↑ Back to top | Tablatures and chords are parodies/interpretations of the original songs. You may use it for private study, scholarship, research or language learning purposes only
© 2014 AZChords.com Contact us | Privacy policy | DMCA | Add/correct tabs | Request tabs | Top 50 tabs