» » »

Underoath, And I Dreamt Of You Tabs (ver.1)

Artists:  A B C D E F G H I J K L M N O P Q R S T U V W X Y Z # 

And I Dreamt Of You Tabs (ver.1)

Underoath Tabs
Rating:
5/5 (4 votes)
And I Dreamt Of You lessons Tabs too difficult? Try these video lessons and learn fast
                
this is just from about 8 and a half minutes to about 10 minutes...
enjoy!

(Use alternate picking)
e-------------------------|
B-------------------------|
G-------------------------| play 4x
D-----555-111-----000-111-|
A-333---------------------|
D-------------666---------|

figure out the rhythm yourself
e---------------------------------------|
B---------------------------------------|
G---------------------------------------| play 2x
D----------0-2-2-0-2-3-5-2--------------|
A-----------------------------------7-8-|
D-3--6-5-2-----------------3--6-5-2-----|

e-------------------------|
B-------------------------|
G-------------------------|
D-----555-111-----000-111-| play 4x
A-333---------------------|
D-------------666---------|

Gtr. 1 (play chords inbetween following riff(s))
e---------------|
B---------------|
G-9--9--7--5--4-|
D-9--9--7--5--4-|
A-7--7--5--3--2-|
D---------------|
Gtr. 2
e--------------------------------------|
B--------------------------------------|
G-----------7--------------------------|
D-9-10-9------9-10----9-10-9----7----7-|
A---------------------------------10---|
D--------------------------------------|

main riff
e------------------------------------------|
B------------------------------------------|
G----------7-------------------------------|
D-7-9-10-7----9-10-9----10-9-10----7----7--|
A--------------------10---------8----10----|
D------------------------------------------|
(play that with same chords from before^)

Gtr. 1 (use alternate picking)
e-----------------------------------------------------|
B-----------------------------------------------------|
G-----------------------------------------------------|
D-----------------------------------------------------|
A-----------------------------------------------------|
D-2--222222222-3--333333333-5--555555555-7--777777777-|

Gtr. 2 (fill/riff thingy)
e-------------|
B-------------|
G-3-2-0-2-0---|
D-----------3-|
A-------------|
D-------------|

main riff again
e------------------------------------------|
B------------------------------------------|
G----------7-------------------------------|
D-7-9-10-7----9-10-9----10-9-10----7----7--|
A--------------------10---------8----10----|
D------------------------------------------|

then this thing again
Gtr. 1
e-----------------------------------------------------|
B-----------------------------------------------------|
G-----------------------------------------------------|
D-----------------------------------------------------|
A-----------------------------------------------------|
D-2--222222222-3--333333333-5--555555555-7--777777777-|

Gtr. 2
e-------------|
B-------------|
G-3-2-0-2-0---|
D-----------3-|
A-------------|
D-------------|

that's all i've figured out so far
            
Submit corrections

comments powered by Disqus
↑ Back to top | Underoath Tabs for And I Dreamt Of You. Lyrics for acoustic guitar and electric guitar. Tablatures and chords are parodies/interpretations of the original songs. You may use it for private study, scholarship, research or language learning purposes only