>
 >
A Message For Adrienne

A Message For Adrienne Guitar Tabs

Underoath - A Message For Adrienne chords, tabs, tablatures, lyrics

Guitar lessons | Add/correct | Request | Top 50 tabs Artists:  A B C D E F G H I J K L M N O P Q R S T U V W X Y Z 0-9

A Message For Adrienne Guitar Tabs – Underoath

CD, Sheet music, Poster

Do you like A Message For Adrienne? Share with your friends now
Tabs
-------------------------------------------------------------------------------
                             SONG NAME – A Message For Adrienne
-------------------------------------------------------------------------------

Tuning: drop D nigga!



okay everybody else’s tabs sucked for this song so, I’m doing the right thing here.

e|----------------------------------|   [both guitars]
B|----------------------------------|
G|----------------------------------|
D|-1p0-3p0-1p0-5p0-1p0-6p0-1p0-8\\--|   play this twice, then twice again palm muted.
A|-1p0-3p0-1p0-5p0-1p0-6p0-1p0-8\\--|
D|-1p0-3p0-1p0-5p0-1p0-6p0-1p0-8\\--|

e|-----------------------------------------------|
B|-----------------------------------------------|
G|-----------------------------------------------|
D|-6--6--66--6-6-66666---8--8--88--8-8-88888-----|   play twice [just one guitar]
A|-5--5--55--5-5-55555---5--5--55--5-5-55555-----|
D|-----------------------------------------------|
 
====================================================================

e|------------------------------------------------------|                            
B|------------------------------------------------------|
G|------------------------------------------------------| treble picked play twice 
D|-333333335555555500000000222222223333333300000000-----|  [guitar one]
A|------------------------------------------------------|
D|------------------------------------------------------|

e|-----------------------------------------------------------------|
B|-----------------------------------------------------------------|
G|-----------------------------------------------------------------|  treble picked 
D|-----------------------------------------------------------------|    play once
A|-----------------------------------------------------------------| [guitar two]
D|-00000000777777775555555588888888777777775555555588888888--------|

e|-----------------------------------------------|
B|-----------------------------------------------|
G|-----------------------------------------------|
D|-6--6--66--6-6-66666---8--8--88--8-8-88888-----|   play once [guitar two]
A|-5--5--55--5-5-55555---5--5--55--5-5-55555-----|
D|-----------------------------------------------|

======================================================================

e|-----------------------------|
B|-----this-eight-is-kinda-pinched
G|-9---8---7------7------------|    play eight times [one guitar]
D|--8---7---6----8-------------|
A|---7---6---5--9--------------|
D|-----------------------------|

e|------------|
B|------------|
G|------------|  just after four riffs of the one above [other guitar] comes in
D|-0000000----|   with just a bunch of palm muted opens [“chuggas”]
A|-0000000----|
D|-0000000----|
P/M………………..

=====================================================================


e|------------------------------------------------------------------| both guitars
B|------------------------------------------------------------------| t= 10
G|------------------------------------------------------------------| 
D|-0~~~~-----33-----55-----tttt99t9------33-----55------tttt99t9----|
A|-0~~~~-----33-----55-----88888888------33-----55------88888888----|
D|-0~~~~-----33-----55-----88888888------33-----55------88888888----|

e|--------------------------------------------------|
B|--------------------------------------------------| one guitar
G|-----------------t-tt-ttt-t-tt-ttt----------------| play four times
D|-3-33-33-5-55-55-8-88-888-8-88-888----------------|
A|-3-33-33-5-55-55-8-88-888-8-88-888----------------|
D|-3-33-33-5-55-55-8-88-888-8-88-888----------------|

e|---------------------------------------|
B|---------------------------------------| other guitar plays this a bunch of times
G|-10-9----10-9----10-9----10-9----------| with the above riff.
D|------10------10------10------10-------|
A|---------------------------------------|
D|---------------------------------------|

==============================================================

e|-----------------------------------------|  one guitar does this four times
B|-----------------------------------------|  other guitar does chuggas 
G|-7-7-7-7-7-7-7-7-7-7-7-7-7-7-7-7---------| 
D|-x-x-x-x-x-x-x-x-x-x-x-x-x-x-x-x---------|
A|-5-5-5-5-5-5-5-5-4-4-4-4-7-7-7-7---------|
D|-----------------------------------------|

==============================================================

e|--------------------------------------------------|
B|--------------------------------------------------| one guitar plays this
G|----------------------3-333-333-------------------| [treble pick the notes]
D|-0-000-000--33332222--3-333-333--5555333388887777-|
A|-0-000-000------------1-111-111-------------------|
D|-0-000-000----------------------------------------|
     ...  .               ...  .

e|----------------------------------------|
B|----------------------------------------|
G|----------------------------------------|   other guitar plays this a bunch.
D|-55555333388887777----------------------|   [treble picked of course]
A|----------------------------------------|
D|----------------------------------------|

=============================================================

e|----------------------------------------|
B|----------------------------------------|
G|-5-7-7-7-9-9-t-t-t-5-5-5-5--------------| one guitar plays this kinda various  
D|-x-x-x-x-x-x-x-x-x-x-x-x-x--------------|   a few times. Then goes into..
A|-3/5-5-5/7-7/8-8-8\3-3-3-3--------------|
D|----------------------------------------|

e|----------------------------------------|
B|----------------------------------------|
G|----------------------------------------| played a lot, treble picked  
D|----------------------------------------|   
A|-55557777888833335555777788883333-------|
D|----------------------------------------|

e|----------------------------------------|
B|----------------------------------------|
G|----------------------------------------| other guitar comes in with this   
D|----------------------------------------|   like wise treble picked.
A|----------------------------------------|
D|-00000000000000008888888855555555-------|

===================================================================

e|---------------------------------------------------------------------|
B|---------------------------------------------------------------------|
G|-7-777-7-7-7-77-776-666-6-6-6-66-666-66-6-777-6-6-6-66-66-6-777-6-6--|
D|-x-xxx-x-x-x-xx-xxx-xxx-x-x-x-xx-xx7-77-7-777-7-7-7-77-77-7-777-7-7--|   
A|-5-555-5-5-5-55-554-444-4-4-4-44-440-00-0-000-0-0-0-00-00-0-000-0-0--|
D|---------------------------------------------------------------------|

one guitar strums this kinda lightly, the rhythm was hard as hell to map but you get the idea.

e|----------------------------------------|
B|----------------------------------------|
G|-18-18-18-17-17-17~-18-18-18-17-17-17---| [other guitar in the background]
D|--------------------------------------18|   
A|----------------------------------------|
D|----------------------------------------|

e|---------------------------------------------------|
B|---------------------------------------------------|
G|-7~~----6~~--------------------6-------------------| 
D|-7~~----7~~----555555555555555555555555555555550---| [still just other guitar]  
A|-5~~----4~~----555555555555555555555555555555550---|
D|---------------555555555555555555555555555555550---|
                  ............... ...............


| /  slide up
| \  slide down
| h  hammer-on
| p  pull-off
| ~  vibrato
| +  harmonic
| x  Mute note
===============================================================================





Comments


Popular Underoath tabs & chords
Down Set Go Bass Tabs
Down, Set, Go Bass Tabs
Everyone Looks So Good From Here Bass Tabs
A Boy Brushed Red Living In Black And White Drum Tabs
A Moment Suspended In Time Tabs
Boy Brushed Red Living In Black And White Live Tabs
Burden In Your Hands Tabs
Last Tabs
Never Meant To Break Your Heart 1 Tabs
There Could Be Nothing After This 1 Tabs


Song lyrics



↑ Back to top | Tablatures and chords are parodies/interpretations of the original songs. You may use it for private study, scholarship, research or language learning purposes only
© 2014 AZChords.com Contact us | Privacy policy | DMCA | Add/correct tabs | Request tabs | Top 50 tabs