» » »

Underoath, A Divine Eradication Tabs (ver.1)

Artists:  A B C D E F G H I J K L M N O P Q R S T U V W X Y Z # 

A Divine Eradication Tabs (ver.1)

Underoath Tabs
Rating:
5/5 (1 vote)
A Divine Eradication lessons Tabs too difficult? Try these video lessons and learn fast
                Band: Underoath
Tuning: Drop B

This has to be among the first of all Underoath tunes to be in drop B. That's what I 
thought was pretty cool about this song.

Intro
Song starts in 6/8 time but then switches to 5/4. That's what makes this song to 
complicated. Listen for the timing.
0:00-0:14
|--------------------------------------------------------|
|--------------------------------------------------------|
|--------------------------------------------------------|
|---0-0-0-0-8/-0-0-0-8/-0-0-0-0-8/-0-0-0-0-8--12---------| 2x
|---0-0-0-0-7/-0-0-0-7/-0-0-0-0-7/-0-0-0-0-7---x---------|
|---0-0-0-0----0-0-0----0-0-0-0----0-0-0-0----12---------|

0:14-0:21
Listen again for timing.
Let me feel it rain down. I cannot wait any longer...
|--------------------------------------------------------|
|--------------------------------------------------------|
|--------------------------------------------------------|
|---------0------0-----------0-----------0----0----------|
|---------0------0-----------0-----------0----0----------|
|---------0------0-----------0-----------0----0----------|

0:21-0:28
|--------------------------------------------------------|
|--------------------------------------------------------|
|--------------------------------------------------------|
|---0-0-0-0-8/-0-0-0-8/-0-0-0-0-8/-0-0-0-0-8--12---------|
|---0-0-0-0-7/-0-0-0-7/-0-0-0-0-7/-0-0-0-0-7---x---------|
|---0-0-0-0----0-0-0----0-0-0-0----0-0-0-0----12---------|

Verse
As far as I can tell, one of the guitars is strumming this through the whole verse.
Don't follow the numbers here. Just listen to the song.
0:28-0:56
|--------------------------------------------------------------------------|
|--------------------------------------------------------------------------|
|--------------------------------------------------------------------------|
|--------------------------------------------------------------------------| 4x
|---0000000000000000000000000000000055555555555555555555555555555111111111-|
|---0000000000000000000000000000000055555555555555555555555555555111111111-|

0:56-1:11
|--------------------------------------------------------|
|--------------------------------------------------------|
|--------------------------------------------------------|
|---0-0-0-0-8/-0-0-0-8/-0-0-0-0-8/-0-0-0-0-8--12---------| 2x
|---0-0-0-0-7/-0-0-0-7/-0-0-0-0-7/-0-0-0-0-7---x---------|
|---0-0-0-0----0-0-0----0-0-0-0----0-0-0-0----12---------|

I think this is how the next part goes.
1:11-1:16
|-----------------------------------------------------------|
|------------10----10-10------------------------------------|
|-------------9-----9--9------------------------------------|
|---0-----------0-0------0----------------------------------|
|---0-(hold)------0-0------0--------------------------------|
|---0-----------0-0------0-0h2h3h57232----------------------|

1:16-1:32
I'm not sure about this part.
|------------------------------------------------------------------------|
|------------------------------------------------------------------------|
|------------------------------------------------------------------------|
|------------------------------------------------------------------------| 2x
|---3---3----1-1-7-7-0-0----------0-0----------0-0----------0-0----------|
|---3-5-3----1-1-7-7-0-0----------0-0----------0-0----------0-0----------|
|---3---3-5--1-1-7-7-0-0-0h3h5h71-0-0-0h3h5h71-0-0-0h3h5h71-0-0-0h3h5h71-|

1:32-1:37
|-----------------------------------------------------------------|
|-----------------------------------------------------------------|
|-----------------------------------------------------------------|
|-----------------------------------------------------------------|
|---3---3----1-1-7-7-3---3----1-1-7-7-----------------------------|
|---3-5-3----1-1-7-7-3-5-3----1-1-7-7-----------------------------|
|---3---3-5--1-1-7-7-3---3-5--1-1-7-7-----------------------------|

1:37-1:48
|-----------------------------------|
|-----------------------------------|
|---10-9---------10-9---------------|
|---10-9-7--7-7-710-9-7--7-7-7------|
|----8-7-7--7-7-7-8-7-7--7-7-7------| 4x
|--------7--7-7-7-----7--7-7-7------|

1:48-1:54
|-----------------------------------------------------------------|
|-----------------------------------------------------------------|
|-----------------------------------------------------------------|
|---8/---1-1---8/---1-1---8/---1-1---8/---1-1---------------------|
|---8/---1-1---8/---1-1---8/---1-1---8/---1-1---------------------|
|---8/---1-1---8/---1-1---8/---1-1---8/---1-1---------------------|

1:54-2:14
                                                                                          It's
really hard to hear what's played  behind this.
|---------------------------------------------------------------------|
|---------------------------------------------------------------------|
|------------------------------------------------7-------7------------|
|---8/---1-1---8/---1-1---8/---1-1---8-7-0-0h1-1-0-------0-----xxxx0--|
|---8/---1-1---8/---1-1---8/---1-1---8-7-0-0h1-1-0-------0-----xxxx0--|
|---8/---1-1---8/---1-1---8/---1-1---8-7-0-0h1-1-0-------0-----xxxx0--|

2:14-2:28
|--------------------------------------------------------------------|
|--------------------------------------------------------------------|
|---7--7-7-7--7-7-7-----7--7-7-7--7----------------------------------|
|---7--7-7-7--7-7-7-5-7-7--7-7-7--7-xxx1-x-1-------------------------|
|---0--0-0-0--0-0-0-5-7-0--0-0-0--0-xxx1-x-1-------------------------|
|---0--0-0-0--0-0-0-5-7-0--0-0-0--0-xxx1-x-1-------------------------|

2:28-3:16
|--------------------------------------------------------------------|
|--------------------------------------------------------------------|
|---7--7-7-7--7-7-7--------------------------------------------------|
|---7--7-7-7--7-7-7-5-7----------0--1--------------------------------| 2x
|---0--0-0-0--0-0-0-5-7----3-----0--1--------------------------------|
|---0--0-0-0--0-0-0-5-7-5-----5--0--1--------------------------------|

Just end it with this.
|-------------|
|-------------|
|-------------|
|------0------|
|------0------|
|------0------|

That's it! Rate, maybe leave a comment, and enjoy!
            
Submit corrections

comments powered by Disqus
↑ Back to top | Underoath Tabs for A Divine Eradication. Lyrics for acoustic guitar and electric guitar. Tablatures and chords are parodies/interpretations of the original songs. You may use it for private study, scholarship, research or language learning purposes only