>
 >
Prepare The Bodies

Prepare The Bodies Guitar Tabs

Underneath The Gun - Prepare The Bodies chords, tabs, tablatures, lyrics

Guitar lessons | Add/correct | Request | Top 50 tabs Artists:  A B C D E F G H I J K L M N O P Q R S T U V W X Y Z 0-9

Prepare The Bodies Guitar Tabs – Underneath The Gun

CD, Sheet music, Poster

Do you like Prepare The Bodies? Share with your friends now
Tabs
Underneath The Gun
The Awakening

Drop B
B F# B E G# C#


Intro

Guitar 1

|--------------13-16-13-------------------|
|------------------------15---------------|
|-----------14--------------14------------|
|-----12-15-------------------------------|
|--0-----------------------------0--------|
|--0-----------------------------0--------|


|---------------13-16-13--------------------|
|------------------------15-----------------|
|---------------------------14--------------|
|-----------14-----------------15-----------|
|--0--12-15-----------------------12--------|
|--0----------------------------------------|

Guitar 1

|----------------------------------------------------|
|----------------------------------------------------|
|--(tremelo picked [x8])-----------------------------|
|----------------------------------------------------|
|--5-5-7-7-8-8-7-7-13-13-12-12-8-7-5-5---------------|
|----------------------------------------------------|

Guitar 2

|--------------------|
|--------------------|
|--------------------|
|--------------------|
|--000-0-000-000-----|
|--000-0-000-000-----|

Guitar 1

|----------------------------------------|
|--(tremelo picked [x8])-----------------|
|----------------------------------------|
|--3-3-5-5-8-8-12-12-10-10---------------|
|----------------------------------------|
|----------------------------------------|

Guitar 2

|-------------------------------------------------------------|
|-------------------------------------------------------------|
|-------------------------------------------------------------|
|-------------------------------------------------------------|
|--5---5---5/7-7---7---7/10-10---10---10/13-13---12---12------|
|---0-0-0-0-----0-0-0-0-------0-0--0-0--------0-0--0-0--0-----|

Guitar 1

|----------------------------------------------------------|
|----------------------------------------------------------|
|----------------------------------------------------------|
|--3---3---3/5-5---5---5/8-8---8---8/12-12---10---10-------|
|----------------------------------------------------------|
|---0-0-0-0-----0-0-0-0-----0-0-0-0-------0-0--0-0--0------|

Guitar 2

|-------------------------------------------------------------|
|-------------------------------------------------------------|
|-------------------------------------------------------------|
|-------------------------------------------------------------|
|--5---5---5/7-7---7---7/10-10---10---10/13-13---12---12------|
|---0-0-0-0-----0-0-0-0-------0-0--0-0--------0-0--0-0--0-----|

Guitar 1 and 2

|---------|
|---------|
|---------|
|---------|
|----0----|
|----0----|


Verse

Both Guitars

|--------------------------------------------|
|--(Tremelo strum/pick[fairly fast])---------|
|--------------------------------------------|
|--3-3-2-2-3-5-3-2-2-------------------------|
|--5-5-4-4-5-7-5-4-4-------------------------|
|--------------------------------------------|

Guitar 1

|---------------------------------------------------------------------------------|
|---------------------------------------------------------------------------------|
|----(x3)----------(x3)---------(x2)----------(x2)----------(x3)------------------|
|---------------------------------------------------------------------------------|
|--0-5-8-5--(8)--0-4-7-4--(7)--0-5-8-5----0-7-10-7----0-4-7-4--(7)----------------|
|---------------------------------------------------------------------------------|

Guitar 2

|-------------------------------------------------------|
|--(Tremelo strum/pick[fairly fast])--------------------|
|-------------------------------------------------------|
|--3-3-x-2-2-x-3-5-3-2-2-x------------------------------|
|--5-5-x-4-4-x-5-7-5-4-4-x------------------------------|
|-------------------------------------------------------|

Breakdown

Guitar 1 and 2

|----------------|
|----------------|
|----------------|
|----------------|
|----0---2---1---|
|----0---2---1---|

Guitar 1 and 2

|---------------------------------------------------------|
|---------------------------------------------------------|
|---------------------------------------------------------|
|---------------------------------------------------------|
|--000000000---0---0-00--000000000---0---0-00-------------|
|--000000000---0---0-00--000000000---0---0-00--<3>--------|

Verse 2

Guitar 1 and 2

|--------------|
|--------------|
|--------------|
|----3---------|
|-------5--4---|
|--------------|

Guitar 1 and 2

|---------------------------------------|
|---------------------------------------|
|---------------------------------------|
|------3-3---------4-4-7-7-5-5-8-8------|
|----------5-5-4-4----------------------|
|--0-0----------------------------------|

Breakdown 2

Guitar 1 and 2

|---------------------|
|---------------------|
|---------------------|
|---------------------|
|--0----0-----0--0-0--|
|--0----0-----0--0-0--|

Verse 3

Guitar 1 and 2

|-------|
|-------|
|-------|
|-------|
|---0---|
|---0---|

Guitar 1

|--------------------------------------------------------|
|--------------------------------------------------------|
|--------------------------------------------------------|
|--------3--7-----5-3-5-8----------3--7-----7-3-5-2------|
|--0--------------------------0--------------------------|
|--0-000--00-000-------------0-000--00-000---------------|

Guitar 2

|--------------------------------------------------------|
|--------------------------------------------------------|
|--------------------------------------------------------|
|--------------------------------------------------------|
|--0-----5--8------7-5-7-10--0-----5--8------8-5-7-4-----|
|--0-000--00-000-------------0-000--00-000---------------|

Breakdown 3

Guitar 1 and 2

|-------|
|-------|
|-------|
|-------|
|---0---|
|---0---|

Guitar 1

|-------------------------------------------------------|
|-------------------------------------------------------|
|-------------------------------------------------------|
|-------------------------------------------------------|
|--1-111---111-1-<3>------------------------------------|
|--1-111---111-1------1-<3>-----------------------------|

Guitar 2

|-----------------------------------------------------|
|-----------------------------------------------------|
|-----------------------------------------------------|
|-----------------------------------------------------|
|--------------------------------1-111---111-1--------|
|--------------------------------1-111---111-1--------|

Guitar 1 and 2

|---------------------------------|
|---------------------------------|
|---------------------------------|
|---------------------------------|
|--1-111---111-1-<3>--------------|
|--1-111---111-1------1-<3>-------|


End On

Guitar 1 and 2

|-------|
|-------|
|-------|
|-------|
|---1---|
|---1---|





Comments


Popular Underneath The Gun tabs & chords
Discordant Bass Tabs
Muckraker Bass Tabs
Breathing New Lungs Chords
Discordant Tabs
Faceless Tabs
Muckraker Tabs
Muckraker 1 Tabs
Reflection Of The Commonwealth 1 Tabs
Romanian With A Glass Eye Tabs
Breathing New Lungs Ukulele


Song lyrics



↑ Back to top | Tablatures and chords are parodies/interpretations of the original songs. You may use it for private study, scholarship, research or language learning purposes only
© 2014 AZChords.com Contact us | Privacy policy | DMCA | Add/correct tabs | Request tabs | Top 50 tabs