>
 >
Plague On Both Ye' Houses

Plague On Both Ye' Houses Guitar Tabs

Underneath The Gun - Plague On Both Ye' Houses chords, tabs, tablatures, lyrics

Guitar lessons | Add/correct | Request | Top 50 tabs Artists:  A B C D E F G H I J K L M N O P Q R S T U V W X Y Z 0-9

Plague On Both Ye' Houses Guitar Tabs – Underneath The Gun

CD, Sheet music, Poster

Do you like Plague On Both Ye' Houses? Share with your friends now
Tabs
                            PLAGUE ON BOTH YE' HOUSES
                        As recorded by Underneath The Gun
                       (From the 2006 Album THE AWAKENING)

Words by Harrison Degrote
Music by Underneath The Gun

Gtr I (B Gb B E Ab Db) - 'Untitled'
Gtr II (B Gb B E Ab Db) - 'Untitled'
Gtr III (B Gb B E Ab Db) - 'Untitled'
Gtr IV (B Gb B E Ab Db) - 'Untitled'

 Intro
  Q=148
  N.C.
 4/4
  Gtrs I, II
  Wx2
|--------||
|--------||
|--------||
|--------||
|--------||
|--------||


   "Blemished in..."
    N.C.
    S S S S S S S S S S S S S S S S   S S S S S S S S S S S S S S S S   3x
||----------------------------------|-----------------------------------||
||o---------------------------------|----------------------------------o||
||----------------------------------|-----------------------------------||
||----------------------------------|-----------------------------------||
||o---------------------------------|----------------------------------o||
||--3-3-3-3-6-6-6-6-5-5-5-5-2-2-2-2-|-4-4-4-4-3-3-3-3-2-2-2-2-3-3-3-3---||


  N.C.
  Gtr I
  S S S S S S S S S S S S S S S S   S S S S S S S S S S S S  Q
|---------------------------------|-------------------------------------|
|---------------------------------|-------------------------------------|
|---------------------------------|-------------------------------------|
|---------------------------------|-------------------------------------|
|---------------------------------|-------------------------[3]b4r======|
|-3-3-3-3-6-6-6-6-5-5-5-5-2-2-2-2-|-4-4-4-4-3-3-3-3-2-2-2-2-------------|
|
| Gtr II
| S S S S S S S S S S S S S S S S   S S S S S S S S S S S S  S    S S S
|---------------------------------|-------------------------------------|
|---------------------------------|-------------------------------------|
|---------------------------------|-------------------------------------|
|---------------------------------|-------------------------------------|
|---------------------------------|-------------------------------------|
|-3-3-3-3-6-6-6-6-5-5-5-5-2-2-2-2-|-4-4-4-4-3-3-3-3-2-2-2-2--3----3-3-3-|


    F5      Ab5     G5      E5        F#5     F5      E5      F5
    Gtrs I, II
    S S S S S S S S S S S S S S S S   S S S S S S S S S S S S S S S S   4x
||----------------------------------|-----------------------------------||
||o---------------------------------|----------------------------------o||
||----------------------------------|-----------------------------------||
||----------------------------------|-----------------------------------||
||o-3-3-3-3-6-6-6-6-5-5-5-5-2-2-2-2-|-4-4-4-4-3-3-3-3-2-2-2-2-3-3-3-3--o||
||--3-3-3-3-6-6-6-6-5-5-5-5-2-2-2-2-|-4-4-4-4-3-3-3-3-2-2-2-2-3-3-3-3---||


  F5        G#5       G5        E5
  Gtr I
  |-3-|     |-3-|     |-3-|     |-3-|
  S S S +E  S S S +E  S S S +E  S S S +E
|-----------------------------------------|
|-----------------------------------------|
|-----------------------------------------|
|-----------------------------------------|
|-3-3-3-(3)-6-6-6-(6)-5-5-5-(5)-2-2-2-(2)-|
|-3-3-3-(3)-6-6-6-(6)-5-5-5-(5)-2-2-2-(2)-|
|
| Gtr II
| W
|-----------------------------------------|
|-----------------------------------------|
|-----------------------------------------|
|-----------------------------------------|
|-----------------------------------------|
|-----------------------------------------|


  F#5       F5        E5        N.C.
  |-3-|     |-3-|     |-3-|
  S S S +E  S S S +E  S S S +E   Q
|----------------------------------------|
|----------------------------------------|
|----------------------------------------|
|----------------------------------------|
|-4-4-4-(4)-3-3-3-(3)-2-2-2-(2)-[3]b4r===|
|-4-4-4-(4)-3-3-3-(3)-2-2-2-(2)----------|
|
| W
|----------------------------------------|
|----------------------------------------|
|----------------------------------------|
|----------------------------------------|
|----------------------------------------|
|----------------------------------------|


  F5        Ab5       G5        E5
  W
|-----------------------------------------|
|-----------------------------------------|
|-----------------------------------------|
|-----------------------------------------|
|-----------------------------------------|
|-----------------------------------------|
|
| |-3-|     |-3-|     |-3-|     |-3-|
| S S S +E  S S S +E  S S S +E  S S S +E
|-----------------------------------------|
|-----------------------------------------|
|-----------------------------------------|
|-----------------------------------------|
|-3-3-3-(3)-6-6-6-(6)-5-5-5-(5)-2-2-2-(2)-|
|-3-3-3-(3)-6-6-6-(6)-5-5-5-(5)-2-2-2-(2)-|


  F#5       F5        E5        N.C.
  W
|----------------------------------------|
|----------------------------------------|
|----------------------------------------|
|----------------------------------------|
|----------------------------------------|
|----------------------------------------|
|
| |-3-|     |-3-|     |-3-|
| S S S +E  S S S +E  S S S +E   Q
|----------------------------------------|
|----------------------------------------|
|----------------------------------------|
|-------------------------------[3]b4r===|
|-4-4-4-(4)-3-3-3-(3)-2-2-2-(2)----------|
|-4-4-4-(4)-3-3-3-(3)-2-2-2-(2)----------|


  F5        Ab5       G5        E5
  |-3-|     |-3-|     |-3-|     |-3-|
  S S S +E  S S S +E  S S S +E  S S S +E
|-----------------------------------------|
|-----------------------------------------|
|-----------------------------------------|
|-----------------------------------------|
|-3-3-3-(3)-6-6-6-(6)-5-5-5-(5)-2-2-2-(2)-|
|-3-3-3-(3)-6-6-6-(6)-5-5-5-(5)-2-2-2-(2)-|
|
| W
|-----------------------------------------|
|-----------------------------------------|
|-----------------------------------------|
|-----------------------------------------|
|-3---------------------------------------|
|-3---------------------------------------|


  F#5         F5        E5        N.C.
   |-3--|     |-3-|     |-3-|
   S  S S +E  S S S +E  S S S +E   Q
|------------------------------------------|
|------------------------------------------|
|------------------------------------------|
|------------------------------------------|
|--4--4-4-(4)-3-3-3-(3)-2-2-2-(2)-[3]b4r===|
|--4--4-4-(4)-3-3-3-(3)-2-2-2-(2)----------|
|
| +W
|------------------------------------------|
|------------------------------------------|
|------------------------------------------|
|------------------------------------------|
|-(3)--------------------------------------|
|-(3)--------------------------------------|


  F5        Ab5       G5        E5
  |-3-|     |-3-|     |-3-|     |-3-|
  S S S +E  S S S +E  S S S +E  S S S +E
|-----------------------------------------|
|-----------------------------------------|
|-----------------------------------------|
|-----------------------------------------|
|-3-3-3-(3)-6-6-6-(6)-5-5-5-(5)-2-2-2-(2)-|
|-3-3-3-(3)-6-6-6-(6)-5-5-5-(5)-2-2-2-(2)-|
|
| W
|-----------------------------------------|
|-----------------------------------------|
|-----------------------------------------|
|-----------------------------------------|
|-3---------------------------------------|
|-3---------------------------------------|


                        H.=H            Q=40
  F#5         F5        E5        N.C.
   |-3--|     |-3-|     |-3-|
   S  S S +E  S S S +E  S S S +E   Q
|-----------------------------------------||
|-----------------------------------------||
|-----------------------------------------||
|---------------------------------[3]b4r==||
|--4--4-4-(4)-3-3-3-(3)-2-2-2-(2)---------||
|--4--4-4-(4)-3-3-3-(3)-2-2-2-(2)---------||
|
| +W
|-----------------------------------------||
|-----------------------------------------||
|-----------------------------------------||
|-----------------------------------------||
|-(3)-------------------------------------||
|-(3)-------------------------------------||


   "Showing the world..."
    Q=107
    F5          Ab5         G5          E5
    Gtr I
    T T T T +E  T T T T +E  T T T T +E  T T T T +E
||--------------------------------------------------|
||o-------------------------------------------------|
||--------------------------------------------------|
||--------------------------------------------------|
||o-3-3-3-3-(3)-6-6-6-6-(6)-5-5-5-5-(5)-2-2-2-2-(2)-|
||--3-3-3-3-(3)-6-6-6-6-(6)-5-5-5-5-(5)-2-2-2-2-(2)-|
|
|   Gtr II
|   T T T T +E  T T T T +E  T T T T +E  T T T T +E
||--------------------------------------------------|
||o-------------------------------------------------|
||--------------------------------------------------|
||--------------------------------------------------|
||o-3-3-3-3-(3)-6-6-6-6-(6)-5-5-5-5-(5)-2-2-2-2-(2)-|
||--3-3-3-3-(3)-6-6-6-6-(6)-5-5-5-5-(5)-2-2-2-2-(2)-|


  F#5         F5          E5          F5
  T T T T +E  T T T T +E  T T T T +E   Q
|-------------------------------------------------------|
|-------------------------------------------------------|
|-------------------------------------------------------|
|-------------------------------------------------------|
|-4-4-4-4-(4)-3-3-3-3-(3)-2-2-2-2-(2)-[3]b4r============|
|-4-4-4-4-(4)-3-3-3-3-(3)-2-2-2-2-(2)-------------------|
|
| T T T T +E  T T T T +E  T T T T +E   T    T T T +E
|-------------------------------------------------------|
|-------------------------------------------------------|
|-------------------------------------------------------|
|-------------------------------------------------------|
|-4-4-4-4-(4)-3-3-3-3-(3)-2-2-2-2-(2)--3----3-3-3-(3)---|
|-4-4-4-4-(4)-3-3-3-3-(3)-2-2-2-2-(2)--3----3-3-3-(3)---|


  1.
  F5          Ab5         G5          E5
  T T T T +E  T T T T +E  T T T T +E  T T T T +E
|-------------------------------------------------|
|-------------------------------------------------|
|-------------------------------------------------|
|-------------------------------------------------|
|-3-3-3-3-(3)-6-6-6-6-(6)-5-5-5-5-(5)-2-2-2-2-(2)-|
|-3-3-3-3-(3)-6-6-6-6-(6)-5-5-5-5-(5)-2-2-2-2-(2)-|
|
| T T T T +E  T T T T +E  T T T T +E  T T T T +E
|-------------------------------------------------|
|-------------------------------------------------|
|-------------------------------------------------|
|-------------------------------------------------|
|-3-3-3-3-(3)-6-6-6-6-(6)-5-5-5-5-(5)-2-2-2-2-(2)-|
|-3-3-3-3-(3)-6-6-6-6-(6)-5-5-5-5-(5)-2-2-2-2-(2)-|


  F#5         F5          E5    N.C.
                          |-3-|
  T T T T +E  T T T T +E  E E E  Q
|-----------------------------------------||
|----------------------------------------o||
|-----------------------------------------||
|-------------------------------[3]b4r====||
|-4-4-4-4-(4)-3-3-3-3-(3)-2-2-2----------o||
|-4-4-4-4-(4)-3-3-3-3-(3)-2-2-2-----------||
|
|                         |-3-|
| T T T T +E  T T T T +E  E E E  Q
|-----------------------------------------||
|----------------------------------------o||
|-----------------------------------------||
|-------------------------------[3]b4r====||
|-4-4-4-4-(4)-3-3-3-3-(3)-2-2-2----------o||
|-4-4-4-4-(4)-3-3-3-3-(3)-2-2-2-----------||


  2.
  F5          Ab5         G5          E5
  T T T T +E  T T T T +E  T T T T +E  T T T T +E
|-------------------------------------------------|
|-------------------------------------------------|
|-------------------------------------------------|
|-------------------------------------------------|
|-3-3-3-3-(3)-6-6-6-6-(6)-5-5-5-5-(5)-2-2-2-2-(2)-|
|-3-3-3-3-(3)-6-6-6-6-(6)-5-5-5-5-(5)-2-2-2-2-(2)-|
|
| T T T T +E  T T T T +E  T T T T +E  T T T T +E
|-------------------------------------------------|
|-------------------------------------------------|
|-------------------------------------------------|
|-------------------------------------------------|
|-3-3-3-3-(3)-6-6-6-6-(6)-5-5-5-5-(5)-2-2-2-2-(2)-|
|-3-3-3-3-(3)-6-6-6-6-(6)-5-5-5-5-(5)-2-2-2-2-(2)-|


  F#5         F5          E5          F5
  T T T T +E  T T T T +E  T T T T +E   Q
|-----------------------------------------------------|
|-----------------------------------------------------|
|-----------------------------------------------------|
|-------------------------------------[3]b4r==========|
|-4-4-4-4-(4)-3-3-3-3-(3)-2-2-2-2-(2)-----------------|
|-4-4-4-4-(4)-3-3-3-3-(3)-2-2-2-2-(2)-----------------|
|
| T T T T +E  T T T T +E  T T T T +E   T    T T T +E
|-----------------------------------------------------|
|-----------------------------------------------------|
|-----------------------------------------------------|
|-----------------------------------------------------|
|-4-4-4-4-(4)-3-3-3-3-(3)-2-2-2-2-(2)--3----3-3-3-(3)-|
|-4-4-4-4-(4)-3-3-3-3-(3)-2-2-2-2-(2)--3----3-3-3-(3)-|


    N.C.
    S S S S S S S S S S S S S S S S   S S S S S S S S S S S S  Q
||----------------------------------|--------------------------------------|
||o---------------------------------|--------------------------------------|
||----------------------------------|--------------------------------------|
||----------------------------------|--------------------------------------|
||o---------------------------------|-------------------------[3]b4r=======|
||--3-3-3-3-6-6-6-6-5-5-5-5-2-2-2-2-|-4-4-4-4-3-3-3-3-2-2-2-2--------------|
|
|   S S S S S S S S S S S S S S S S   S S S S S S S S S S S S  S    S S S
||----------------------------------|--------------------------------------|
||o---------------------------------|--------------------------------------|
||----------------------------------|--------------------------------------|
||----------------------------------|--------------------------------------|
||o---------------------------------|--------------------------------------|
||--3-3-3-3-6-6-6-6-5-5-5-5-2-2-2-2-|-4-4-4-4-3-3-3-3-2-2-2-2--3----3-3-3--|


  N.C.
  S S S S S S S S S S S S S S S S
|---------------------------------|
|---------------------------------|
|---------------------------------|
|---------------------------------|
|---------------------------------|
|-3-3-3-3-6-6-6-6-5-5-5-5-2-2-2-2-|
|
| S S S S S S S S S S S S S S S S
|---------------------------------|
|---------------------------------|
|---------------------------------|
|---------------------------------|
|---------------------------------|
|-3-3-3-3-6-6-6-6-5-5-5-5-2-2-2-2-|


                  E5            N.C.
  S S S S S S S S T T T T +E     Q
|--------------------------------------------||
|-------------------------------------------o||
|--------------------------------------------||
|-------------------------------[3]b4r=======||
|-----------------2-2-2-2-(2)---------------o||
|-4-4-4-4-3-3-3-3-2-2-2-2-(2)----------------||
|
| S S S S S S S S S   S    S  S  S    S S S
|--------------------------------------------||
|-------------------------------------------o||
|--------------------------------------------||
|--------------------------------------------||
|-------------------------------------------o||
|-4-4-4-4-3-3-3-3-2---2----2--2--3----3-3-3--||


  Q=148
  D5
  W          +W
|----------|--------||
|----------|--------||
|----------|--------||
|-0--------|-(0)----||
|-0--------|-(0)----||
|-0--------|-(0)----||
|
| W          +W
|----------|--------||
|----------|--------||
|----------|--------||
|-0--------|-(0)----||
|-0--------|-(0)----||
|-0--------|-(0)----||


 "Blemished in..."
  Q=131
  N.C.
  E S S S S S S  E S S S S  S  S   E S S S S S S S S  S  S  S  S  S  S
|--------------------------------|-------------------------------------|
|--------------------------------|-------------------------------------|
|--------------------------------|-------------------------------------|
|--------------------------------|-------------------------------------|
|-8---------7-8-10---------12-10-|-8---------8-8-7-7-13-13-12-12-12-12-|
|---0-0-0-0--------0-0-0-0-------|---0-0-0-0---------------------------|
|
| E S S S S S S  E S S S S  S  S   E S S S S S S S S  S  S  S  S  S  S
|--------------------------------|-------------------------------------|
|--------------------------------|-------------------------------------|
|--------------------------------|-------------------------------------|
|--------------------------------|-------------------------------------|
|-8---------7-8-10---------12-10-|-8---------8-8-7-7-13-13-12-12-12-12-|
|---0-0-0-0--------0-0-0-0-------|---0-0-0-0---------------------------|


  N.C.
  E S S S S S S  E S S S S  S  S   E S S S S S S S S S S S S S S
|--------------------------------|-------------------------------|
|--------------------------------|-------------------------------|
|--------------------------------|-------------------------------|
|--------------------------------|-------------------------------|
|-8---------7-8-10---------12-10-|-8---------8-8-7-7-------------|
|---0-0-0-0--------0-0-0-0-------|---0-0-0-0---------8-8-7-7-7-7-|
|
| E S S S S S S  E S S S S  S  S   E S S S S S S S S S S S S S S
|--------------------------------|-------------------------------|
|--------------------------------|-------------------------------|
|--------------------------------|-------------------------------|
|--------------------------------|-------------------------------|
|-8---------7-8-10---------12-10-|-8---------8-8-7-7-------------|
|---0-0-0-0--------0-0-0-0-------|---0-0-0-0---------8-8-7-7-7-7-|


    N.C.
     E S S S S  S  S  E S S S S  S  S
||------------------------------------|
||o-----------------------------------|
||------------------------------------|
||------------------------------------|
||o--8----------7--8-10---------12-10-|
||-----0-0-0-0----------0-0-0-0-------|
|
|    E S S S S  S  S  E S S S S  S  S
||------------------------------------|
||o-----------------------------------|
||------------------------------------|
||------------------------------------|
||o-12---------10-12-13---------15-13-|
||-----0-0-0-0----------0-0-0-0-------|


   E S S S S  S  S  S  S  S  S  S  S  S  S
|-------------------------------------------|
|-------------------------------------------|
|-------------------------------------------|
|-------------------------------------------|
|--8----------8--8--7--7-13-13-12-12-12-12--|
|----0-0-0-0--------------------------------|
|
|  E S S S S  S  S  S  S  S  S  S  S  S  S
|-------------------------------------------|
|-------------------------------------------|
|-------------------------------------------|
|-------------------------------------------|
|-12---------12-12-10-10-17-17-15-15-15-15--|
|----0-0-0-0--------------------------------|


  N.C.
   E S S S S  S  S  E S S S S  S  S
|-----------------------------------|
|-----------------------------------|
|-----------------------------------|
|-----------------------------------|
|--8----------7--8-10---------12-10-|
|----0-0-0-0----------0-0-0-0-------|
|
|  E S S S S  S  S  E S S S S  S  S
|-----------------------------------|
|-----------------------------------|
|-----------------------------------|
|-----------------------------------|
|-12---------10-12-13---------15-13-|
|----0-0-0-0----------0-0-0-0-------|


   E S S S S  S  S  S  S  S  S  S  S  S  S
|-------------------------------------------||
|------------------------------------------o||
|-------------------------------------------||
|-------------------------------------------||
|--8----------8--8--7--7-------------------o||
|----0-0-0-0--------------8--8--7--7--7--7--||
|
|  E S S S S  S  S  S  S  S  S  S  S  S  S
|-------------------------------------------||
|------------------------------------------o||
|-------------------------------------------||
|-------------------------------------------||
|-12---------12-12-10-10-------------------o||
|----0-0-0-0-------------12-12-10-10-10-10--||


   "Showing the world..."
    Q=148
    N.C.
    S S S S S S S S S S S S S S S S   S S S S S S S S S S S S S S S S
||----------------------------------|----------------------------------|
||o---------------------------------|----------------------------------|
||----------------------------------|----------------------------------|
||------------------8-8-8-8-7-7-7-7-|-----------------5-5-5-5----------|
||o-5-5-5-5-5-5-5-5-----------------|-8-8-8-8-7-7-7-7---------8-8-8-8--|
||----------------------------------|----------------------------------|
|
|   S S S S S S S S S S S S S S S S   S S S S S S S S S S S S S S S S
||----------------------------------|----------------------------------|
||o---------------------------------|----------------------------------|
||----------------------------------|----------------------------------|
||------------------8-8-8-8-7-7-7-7-|-----------------5-5-5-5----------|
||o-5-5-5-5-5-5-5-5-----------------|-8-8-8-8-7-7-7-7---------8-8-8-8--|
||----------------------------------|----------------------------------|


  N.C.
  S S S S S S S S S S S S S S S S   S S S S S S S S  S  S  S  S  S  S  S  S  4x
|---------------------------------|---------------------------------------||
|---------------------------------|--------------------------------------o||
|---------------------------------|---------------------------------------||
|-7-7-7-7-7-7-7-7-5-5-5-5-5-5-5-5-|-8-8-8-8-7-7-7-7-10-10-10-10-10-10-1010||
|---------------------------------|--------------------------------------o||
|---------------------------------|---------------------------------------||
|
| S S S S S S S S S S S S S S S S   S S S S S S S S  S  S  S  S  S  S  S  S  4x
|---------------------------------|---------------------------------------||
|---------------------------------|--------------------------------------o||
|---------------------------------|---------------------------------------||
|-7-7-7-7-7-7-7-7-5-5-5-5-5-5-5-5-|-8-8-8-8-7-7-7-7-10-10-10-10-10-10-1010||
|---------------------------------|--------------------------------------o||
|---------------------------------|---------------------------------------||


  Q=101
  N.C.
  E S S S S S E E E S E   E S S S S S E E E  S E
|-----------------------|------------------------||
|-----------------------|------------------------||
|-----------------------|------------------------||
|-------8-----7---------|-------8-----7-----10-7-||
|-5-------------8-7-5-3-|-5-------------8-7------||
|---0-0---0-0-----------|---0-0---0-0------------||
|
| W                       W
|-----------------------|------------------------||
|-----------------------|------------------------||
|-----------------------|------------------------||
|-----------------------|------------------------||
|-----------------------|------------------------||
|-----------------------|------------------------||


   "Calling all into..."
    N.C.
    E S S S S S E E E S E   E S S S S S E E E  S E  4x
||------------------------|-------------------------||
||o-----------------------|------------------------o||
||------------------------|-------------------------||
||--------8-----7---------|-------8-----7-----10-7--||
||o-5-------------8-7-5-3-|-5-------------8-7------o||
||----0-0---0-0-----------|---0-0---0-0-------------||
|
|   E S S S S S E E E S E   E S S S S S E E E  S E  4x
||------------------------|-------------------------||
||o-----------------------|------------------------o||
||------------------------|-------------------------||
||--------8-----7---------|-------8-----7-----10-7--||
||o-5-------------8-7-5-3-|-5-------------8-7------o||
||----0-0---0-0-----------|---0-0---0-0-------------||


 Breakdown
  Q=148
  D5
  W          +W
|----------|--------|
|----------|--------|
|----------|--------|
|-0--------|-(0)----|
|-0--------|-(0)----|
|-0--------|-(0)----|
|
| W          +W
|----------|--------|
|----------|--------|
|----------|--------|
|-0--------|-(0)----|
|-0--------|-(0)----|
|-0--------|-(0)----|


  D5
  S S S S S S S S S S E S S E   S S S S S S S S S S E S S E
|-----------------------------|-----------------------------|
|-----------------------------|-----------------------------|
|-----------------------------|-----------------------------|
|-----------------------------|-----------------------------|
|-0-0-0-0-0-0-0-0-0-0---0-0---|-0-0-0-0-0-0-0-0-0-0---0-0---|
|-0-0-0-0-0-0-0-0-0-0---0-0---|-0-0-0-0-0-0-0-0-0-0---0-0---|
|
| W                             W
|-----------------------------|-----------------------------|
|-----------------------------|-----------------------------|
|-----------------------------|-----------------------------|
|-----------------------------|-----------------------------|
|-----------------------------|-----------------------------|
|-----------------------------|-----------------------------|


  D5
  S S S S S S S S S S E S S E   S S S S S S S S S S E S S E
|-----------------------------|-----------------------------|
|-----------------------------|-----------------------------|
|-----------------------------|-----------------------------|
|-----------------------------|-----------------------------|
|-0-0-0-0-0-0-0-0-0-0---0-0---|-0-0-0-0-0-0-0-0-0-0---0-0---|
|-0-0-0-0-0-0-0-0-0-0---0-0---|-0-0-0-0-0-0-0-0-0-0---0-0---|
|
| W                             W
|-----------------------------|-----------------------------|
|-----------------------------|-----------------------------|
|-----------------------------|-----------------------------|
|-----------------------------|-----------------------------|
|-----------------------------|-----------------------------|
|-----------------------------|-----------------------------|


  D5
  S S S S S S S S S S E S S E   S S S S S S S S S S E S S E
|-----------------------------|-----------------------------|
|-----------------------------|-----------------------------|
|-----------------------------|-----------------------------|
|-----------------------------|-----------------------------|
|-0-0-0-0-0-0-0-0-0-0---0-0---|-0-0-0-0-0-0-0-0-0-0---0-0---|
|-0-0-0-0-0-0-0-0-0-0---0-0---|-0-0-0-0-0-0-0-0-0-0---0-0---|
|
| S S S S S S S S S S E S S E   S S S S S S S S S S E S S E
|-----------------------------|-----------------------------|
|-----------------------------|-----------------------------|
|-----------------------------|-----------------------------|
|-----------------------------|-----------------------------|
|-0-0-0-0-0-0-0-0-0-0---0-0---|-0-0-0-0-0-0-0-0-0-0---0-0---|
|-0-0-0-0-0-0-0-0-0-0---0-0---|-0-0-0-0-0-0-0-0-0-0---0-0---|


  D5
  S S S S S S S S S S E S S E   S S S S S S S S S S S S  Q
|-----------------------------|-----------------------------------||
|-----------------------------|-----------------------------------||
|-----------------------------|-----------------------------------||
|-----------------------------|-----------------------------------||
|-0-0-0-0-0-0-0-0-0-0---0-0---|-0-0-0-0-0-0-0-0-0-0-0-0-[3]b4r====||
|-0-0-0-0-0-0-0-0-0-0---0-0---|-0-0-0-0-0-0-0-0-0-0-0-0-----------||
|
| S S S S S S S S S S E S S E   S S S S S S S S S S E    S    S E
|-----------------------------|-----------------------------------||
|-----------------------------|-----------------------------------||
|-----------------------------|-----------------------------------||
|-----------------------------|-----------------------------------||
|-0-0-0-0-0-0-0-0-0-0---0-0---|-0-0-0-0-0-0-0-0-0-0------0----0---||
|-0-0-0-0-0-0-0-0-0-0---0-0---|-0-0-0-0-0-0-0-0-0-0------0----0---||


   "The close minded..."
    D5
    Gtr III
    S S S S S S S S S S E S S E   S S S S S S S S S S E S S E  4x
||------------------------------|------------------------------||
||o-----------------------------|-----------------------------o||
||------------------------------|------------------------------||
||------------------------------|------------------------------||
||o-0-0-0-0-0-0-0-0-0-0---0-0---|-0-0-0-0-0-0-0-0-0-0---0-0---o||
||--0-0-0-0-0-0-0-0-0-0---0-0---|-0-0-0-0-0-0-0-0-0-0---0-0----||
|
|   Gtr IV
|   S S S S S S S S S S E S S E   S S S S S S S S S S E S S E  4x
||------------------------------|------------------------------||
||o-----------------------------|-----------------------------o||
||------------------------------|------------------------------||
||------------------------------|------------------------------||
||o-0-0-0-0-0-0-0-0-0-0---0-0---|-0-0-0-0-0-0-0-0-0-0---0-0---o||
||--0-0-0-0-0-0-0-0-0-0---0-0---|-0-0-0-0-0-0-0-0-0-0---0-0----||


    D5
    S S S S S S S S  S  S E S S E   S S S S S S S S  S  S E S S  E
||--------------------------------|--------------------------------|
||o-------------------------------|--------------------------------|
||--------------------------------|--------------------------------|
||--------------------------------|--------------------------------|
||o-0-0-0-0-0-0-0-0--0--0---0-0---|-0-0-0-0-0-0-0-0--0--0---0-0----|
||--0-0-0-0-0-0-0-0--0--0---0-0---|-0-0-0-0-0-0-0-0--0--0---0-0----|
|
|   H               +Q      E   E   H               +Q      E    E
||--------------------------------|--------------------------------|
||o-------------------------------|--------------------------------|
||--7---------------(7)-----7s==9-|-9---------------(9)-----9s==10-|
||--x-----------------------x---x-|-x-----------------------x----x-|
||o-5---------------(5)-----5s==7-|-7---------------(7)-----7s===8-|
||--------------------------------|--------------------------------|


  D5
   S S S S S S S S   S  S E  S S  E    S S S S  S S  S S  S S E  S  S E
|-----------------------------------|------------------------------------||
|-----------------------------------|-----------------------------------o||
|-----------------------------------|------------------------------------||
|-----------------------------------|------------------------------------||
|--0-0-0-0-0-0-0-0---0--0----0-0----|--0-0-0-0--0-0--0-0--0-0----0--0---o||
|--0-0-0-0-0-0-0-0---0--0----0-0----|--0-0-0-0--0-0--0-0--0-0----0--0----||
|
|  H                +Q       E    E    Q        E    E    Q      Q
|-----------------------------------|------------------------------------||
|-----------------------------------|-----------------------------------o||
|-10---------------(10)-----10s==15-|-15-------15s==14---14-----14\------||
|--x-------------------------x----x-|--x--------x----x----x------x-------||
|--8----------------(8)------8s==13-|-13-------13s==12---12-----12\-----o||
|-----------------------------------|------------------------------------||


    D5
    S S S S S S S S S S E S S E   S S S S S S S S S S E S S E
||------------------------------|------------------------------||
||o-----------------------------|-----------------------------o||
||------------------------------|------------------------------||
||------------------------------|------------------------------||
||o-0-0-0-0-0-0-0-0-0-0---0-0---|-0-0-0-0-0-0-0-0-0-0---0-0---o||
||--0-0-0-0-0-0-0-0-0-0---0-0---|-0-0-0-0-0-0-0-0-0-0---0-0----||
|
|   S S S S S S S S S S E S S E   S S S S S S S S S S E S S E
||------------------------------|------------------------------||
||o-----------------------------|-----------------------------o||
||------------------------------|------------------------------||
||------------------------------|------------------------------||
||o-0-0-0-0-0-0-0-0-0-0---0-0---|-0-0-0-0-0-0-0-0-0-0---0-0---o||
||--0-0-0-0-0-0-0-0-0-0---0-0---|-0-0-0-0-0-0-0-0-0-0---0-0----||


    D5
    S S S S S S S S S S E   S S E     S S S S S S S S S S E   S S E
||----------------------------------|----------------------------------|
||o---------------------------------|----------------------------------|
||----------------------------------|----------------------------------|
||----------------------------------|----------------------------------|
||o-0-0-0-0-0-0-0-0-0-0-----0-0-----|-0-0-0-0-0-0-0-0-0-0-----0-0------|
||--0-0-0-0-0-0-0-0-0-0-----0-0-----|-0-0-0-0-0-0-0-0-0-0-----0-0------|
|
|   S S S S S S S S S S S S S S S S   S S S S S S S S S S S S S S S S
||----------------------------------|----------------------------------|
||o---------------------------------|----------------------------------|
||----------------------------------|----------------------------------|
||--5-0-8-0-7-0-5-0-7-0-5-0-7-0-5-0-|-5-0-8-0-7-0-5-0-7-0-5-0-7-0-5-0--|
||o---------------------------------|----------------------------------|
||----------------------------------|----------------------------------|


  D5
  S S S S S S S S S S E   S S E     S S S S S S S S S S E    S  S E
|---------------------------------|----------------------------------||
|---------------------------------|---------------------------------o||
|---------------------------------|----------------------------------||
|---------------------------------|----------------------------------||
|-0-0-0-0-0-0-0-0-0-0-----0-0-----|-0-0-0-0-0-0-0-0-0-0------0--0---o||
|-0-0-0-0-0-0-0-0-0-0-----0-0-----|-0-0-0-0-0-0-0-0-0-0------0--0----||
|
|                                                            ~~~
| S S S S S S S S S S S S S S S S   S S S S S S S S S S S S  Q
|---------------------------------|----------------------------------||
|---------------------------------|---------------------------------o||
|---------------------------------|----------------------------------||
|-5-0-8-0-7-0-5-0-7-0-5-0-7-0-5-0-|-5-0-8-0-7-0-5-0-4-0-5-0-[6]------||
|---------------------------------|---------------------------------o||
|---------------------------------|----------------------------------||


 Outro
  D5
  S S S S S S S S S S E S S E   S S S S S S S S S S E S S E
|-----------------------------|-----------------------------|
|-----------------------------|-----------------------------|
|-----------------------------|-----------------------------|
|-----------------------------|-----------------------------|
|-0-0-0-0-0-0-0-0-0-0---0-0---|-0-0-0-0-0-0-0-0-0-0---0-0---|
|-0-0-0-0-0-0-0-0-0-0---0-0---|-0-0-0-0-0-0-0-0-0-0---0-0---|
|
| S S S S S S S S S S E S S E   S S S S S S S S S S E S S E
|-----------------------------|-----------------------------|
|-----------------------------|-----------------------------|
|-----------------------------|-----------------------------|
|-----------------------------|-----------------------------|
|-0-0-0-0-0-0-0-0-0-0---0-0---|-0-0-0-0-0-0-0-0-0-0---0-0---|
|-0-0-0-0-0-0-0-0-0-0---0-0---|-0-0-0-0-0-0-0-0-0-0---0-0---|


  D5
  S S S S S S S S S S E S S E   S S S S S S S S S S E S S +E    +E  E Q  H
|-----------------------------|-------------------------------|-----------*|
|-----------------------------|-------------------------------|-----------*|
|-----------------------------|-------------------------------|-----------*|
|-----------------------------|-------------------------0-(0)-|-(0)-------*|
|-0-0-0-0-0-0-0-0-0-0---0-0---|-0-0-0-0-0-0-0-0-0-0---0-0-(0)-|-(0)-------*|
|-0-0-0-0-0-0-0-0-0-0---0-0---|-0-0-0-0-0-0-0-0-0-0---0-0-(0)-|-(0)-------*|
|
| S S S S S S S S S S E S S E   S S S S S S S S S S E S S +E    +E  E Q  H
|-----------------------------|-------------------------------|-----------*|
|-----------------------------|-------------------------------|-----------*|
|-----------------------------|-------------------------------|-----------*|
|-----------------------------|-------------------------0-(0)-|-(0)-------*|
|-0-0-0-0-0-0-0-0-0-0---0-0---|-0-0-0-0-0-0-0-0-0-0---0-0-(0)-|-(0)-------*|
|-0-0-0-0-0-0-0-0-0-0---0-0---|-0-0-0-0-0-0-0-0-0-0---0-0-(0)-|-(0)-------*|


Duration Legend
---------------
W - whole; H - half; Q - quarter; E - 8th; S - 16th; T - 32nd; X - 64th; a - acciaccatura
+ - note tied to previous; . - note dotted; .. - note double dotted
Uncapitalized letters represent notes that are staccato (1/2 duration)
Irregular groupings are notated above the duration line
Duration letters will always appear directly above the note/fret number it represents the
duration for.  Duration letters with no fret number below them represent rests.  Multi-
bar rests are notated in the form Wxn, where n is the number of bars to rest for.  Low
melody durations appear below the staff

Tablature Legend
----------------
 h   - hammer-on
 p   - pull-off
 b   - bend
 pb  - pre-bend
 r   - bend release (if no number after the r, then release immediately)
 /\  - slide into or out of (from/to "nowhere")
 s   - legato slide
 S   - shift slide
  - natural harmonic
[n]  - artificial harmonic
n(n) - tapped harmonic
 ~   - vibrato
 tr  - trill
 T   - tap
 TP  - trem. picking
 PM  - palm muting
\n/  - tremolo bar dip; n = amount to dip
 \n  - tremolo bar down
 n/  - tremolo bar up
/n\  - tremolo bar inverted dip
 =   - hold bend; also acts as connecting device for hammers/pulls
 <>  - volume swell (louder/softer)
 x   - on rhythm slash represents muted slash
 o   - on rhythm slash represents single note slash

Misc Legend
-----------
 |  - bar
||  - double bar
||o - repeat start
o|| - repeat end
*|  - double bar (ending)
 :  - bar (freetime)
 $  - Segno
 &  - Coda
Tempo markers -  = BPM(8/16=s8/s16), where s8 = swing 8ths, s16 = swing 16ths





Comments


Popular Underneath The Gun tabs & chords
Discordant Bass Tabs
Muckraker Bass Tabs
Cutting Ties, Breathing Lies Tabs
Discordant Tabs
Faceless Tabs
Muckraker Tabs
Muckraker 1 Tabs
Reflection Of The Commonwealth Tabs
Romanian With A Glass Eye Tabs
Breathing New Lungs Ukulele


Song lyrics



↑ Back to top | Tablatures and chords are parodies/interpretations of the original songs. You may use it for private study, scholarship, research or language learning purposes only
© 2014 AZChords.com Contact us | Privacy policy | DMCA | Add/correct tabs | Request tabs | Top 50 tabs