>
 >
Muckraker 1

Muckraker 1 Guitar Tabs

Underneath The Gun - Muckraker 1 chords, tabs, tablatures, lyrics

Guitar lessons | Add/correct | Request | Top 50 tabs Artists:  A B C D E F G H I J K L M N O P Q R S T U V W X Y Z 0-9

Muckraker 1 Guitar Tabs – Underneath The Gun

CD, Sheet music, Poster

Do you like Muckraker 1? Share with your friends now
Bass TabsTabsTabs v2
Underneath the Gun
Muckraker
The Awakening

Drop B

(T) Tremolo Pick
(.) Palm Mute
(*) Harmonic
(~) Long Note
(/) Slide

I'm pretty sure it's 100% correct.

(0:00-0:11)
|---------------------------|
|---------------------------|
|---------------------------|
|------------------5------4-|
|----8---7---8-----5------4-|
|-5-8-4-7-5-8-0000-5-0000-4-| x2
  T TTT TTT TT.... . .... .

(0:11-0:19)
|----------------|
|----------------|
|----------------|
|----------------|
|----8-5-4-7-5-8-|
|-5-8------------| x4
  T TT T T T T T

(0:19-0:31)
|---------------------------|
|---------------------------|
|---------------------------|
|------------------5------4-|
|----8---7---8-----5------4-|
|-5-8-4-7-5-8-0000-5-0000-4-| x2
  T TTT TTT TT.... . .... .

(0:31-0:43)
|-----------------|
|-----------------|
|-----------------|
|-----------------|
|-10-7-8-5-7-4-0--|
|---------------4-| x4
  T  T T T T T TT

(0:43-0:49)
|----------------------|
|----------------------|
|----------------------|
|-10-7-8-5-7-4-4-3-1-0~|
|-10-7-8-5-7-4-4-3-1-0~|
|-10-7-8-5-7-4-4-3-1-0~|

(0:49-0:52)
|-------|
|-------|
|-------|
|-------|
|-00000-|
|-00000-|
  .....

(0:52-1:20)
|---------------------------------------------------------------------|
|---------------------------------------------------------------------|
|---------------------------------------------------------------------|
|---------------------------------------------------------------------|
|-12/-0-0000-00000-1-4-3-0-0000-00000-1-6-4-0-0000-00000-1-4-3--3-2-5-|
|-12/-0-0000-00000-1-4-3-0-0000-00000-1-6-4-0-0000-00000-1-4-3----2---| x2
      . .... ..... . . . . .... ..... . . . . .... ..... . . .  * . *

(1:20-1:22)
|---------------|
|---------------|
|---------------|
|---------------|
|-10-7-8-5-4-0--|
|-------------4-|
  T  T T T T TT

(1:22-1:44)
|---------------------------|
|---------------------------|
|---------------------------|
|---------------------------|
|--7-8-5-4-0---7-8-5-4-10-7-|
|-8---------4-8-------------| x4
  TT T T T TT TT T T T  T T

(1:44-2:03)
|--------------------------|
|--------------------------|
|--------------------------|
|-0~----0~----0~---0~----0-|
|-0~-00-0~-00-0~00-0~-00-0-|
|-0~-00-0~-00-0~00-0~-00-0-|
     ..    ..   ..    ..

(2:03-2:06)
|------|
|------|
|------|
|------|
|-0000-|
|-0000-|
  ....

(2:06-2:25)
|--------------|
|--------------|
|--------------|
|--------------|
|-0000000-0000-|
|-0000000-0000-| x4
  ....... ....

(2:25-2:28)
|-------|
|-------|
|-------|
|-------|
|-0000~-|
|-1111~-|
  ....

(2:28-2:52)
|---------------|
|---------------|
|---------------|
|---------------|
|-0000000-0000~-|
|-1111111-1111~-| x4
  ....... ....

(2:52-2:55)
|-------|
|-------|
|-------|
|-------|
|-0000~-|
|-1111~-|
  ....

(2:55-3:18)
|---------------|
|---------------|
|---------------|
|---------------|
|-0000000-0000~-|
|-1111111-1111~-| x4
  ....... ....





Comments


Popular Underneath The Gun tabs & chords
Discordant Bass Tabs
Muckraker Bass Tabs
Breathing New Lungs Chords
Discordant Tabs
Faceless Tabs
Muckraker Tabs
Prepare The Bodies Tabs
Reflection Of The Commonwealth Tabs
Romanian With A Glass Eye Tabs
Breathing New Lungs Ukulele


Song lyrics



↑ Back to top | Tablatures and chords are parodies/interpretations of the original songs. You may use it for private study, scholarship, research or language learning purposes only
© 2014 AZChords.com Contact us | Privacy policy | DMCA | Add/correct tabs | Request tabs | Top 50 tabs