>
 >
Muckraker

Muckraker Bass Tabs

Underneath The Gun - Muckraker chords, tabs, tablatures, lyrics

Guitar lessons | Add/correct | Request | Top 50 tabs Artists:  A B C D E F G H I J K L M N O P Q R S T U V W X Y Z 0-9

Muckraker Bass Tabs – Underneath The Gun

CD, Sheet music, Poster

Do you like Muckraker? Share with your friends now
Bass TabsTabsTabs v2
|--------------------|x3
|--------------------|
|--------------------|
|000-----------------|

|--------------------|
|--------------------|
|----8-----7---------|
|000---000-----------|

|--------------------|
|--------------------|
|----------88888-----|
|5555-7777-----------|

|--------------------|
|--------------------|
|----------77777-----|
|5555-7777-----------|

|--------------------|
|--------------------|
|----------8888------|
|5555-7777-----------|

|--------------------|
|--------------------|
|----8-----7---------|
|000---000-----------|

|--------------------|x4
|--------------------|
|--854758------------|
|58------------------|

|---------------------------------------------------------------|
|---------------------------------------------------------------|
|----------88888-----------77777------------88888------8-----7--|
|5555-7777-------5555-7777--------5555-7777--------000---000----|

|---------------------------------------------------------------|
|---------------------------------------------------------------|
|----------88888-----------77777------------88888---------------|
|5555-7777-------5555-7777--------5555-7777--------0008-0007----|

|-----------------------|x4
|-----------------------|
|10--7--8--5--7--4--0---|
|----------------------4|

|------------------------------|
|10--7--8--5--7--4--3-1-0------|
|------------------------------|
|-------------------------0----|

|--------|
|--------|
|--------|
|0000----|

|-------------------------------------------------------------------------------------------------|
|---------------------------------------------------------------------------------------3333333---|
|--/5----------------------------------------------------------------------6666666----------------|
|00----00000--000-0--1-4-3--00000--000-0-1-6-4--00000--000-0--1-4-3-0000000------0000000----------|
x2

|-----------------------|
|-----------------------|
|10-7-8-5-7-4-0---------|
|---------------4-------|

|---------------------------------|x4
|--7-8-5-4-0-------7-8-5-4-7-10---|
|8-----------4---8----------------|
|---------------------------------|


AND HERE COMES THE BEST FREAKING BREAKDOWN EVERRRRRRR!!!!!!!!!!!!!!


Preparing...

|--------|
|--------|
|--------|
|0-------|

Ready...

|--------|
|--------|
|--------|
|00-0----|

Set............

|--------|
|--------|
|--------|
|00-0----|

Almost there............

|--------|
|--------|
|--------|
|00-0----|

ONE MORE TIME!!!

|--------|
|--------|
|--------|
|00-0----|


BREAKDOWN!!!!!!!!!

|-----------------------------------|
|-----------------------------------|
|-----------------------------------|
|0000-------0000000-----------------|


|-----------------------------------|
|-----------------------------------|
|-----------------------------------|
|0000-------0000000-----------------|


|-----------------------------------|
|-----------------------------------|
|-----------------------------------|
|0000-------0000000-----------------|


|-----------------------------------|
|-----------------------------------|
|-----------------------------------|
|0000-------0000000-----------------|


|-----------------------------------|
|-----------------------------------|
|-----------------------------------|
|0000-------0000000-----------------|

Ready to crap yourself?

|-----|
|-----|
|-----|
|/12--|


|--------------------|
|--------------------|
|1111~-----1111111~--|
|0000~-----0000000~--|

|--------------------|
|--------------------|
|1111~-----1111111~--|
|0000~-----0000000~--|

|--------------------|
|--------------------|
|1111~-----1111111~--|
|0000~-----0000000~--|

|--------------------|
|--------------------|
|1111~-----1111111~--|
|0000~-----0000000~--|

|--------|
|--------|
|1111----|
|0000----|

Stop! (just to let you know, I made this part a little different, and a bit more heavy. 
should be the same as the above, but i switched it up a bit...)

GO!

|--------------------|
|--------------------|
|0000~---0000000~----|
|1111~---1111111~----|

|--------------------|
|--------------------|
|0000~---0000000~----|
|1111~---1111111~----|

|--------------------|
|--------------------|
|0000~---0000000~----|
|1111~---1111111~----|

|--------------------|
|--------------------|
|0000~---0000000~----|
|1111~---1111111~----|

|--------|
|--------|
|0000----|
|1111----|


Andddddddddd thats the end, hope you liked this tab, it was my first one so it may be 
but I also modified it a bit so don't forget that!

If you've gt any corrections, super, just comment the corrections and I'll put them up. 
very much :)





Comments


Popular Underneath The Gun tabs & chords
Discordant Bass Tabs
Cutting Ties, Breathing Lies Tabs
Faceless Tabs
Muckraker 1 Tabs
Plague On Both Ye' Houses Tabs
Prepare The Bodies Tabs
Reflection Of The Commonwealth Tabs
Reflection Of The Commonwealth 1 Tabs
Romanian With A Glass Eye Tabs
Breathing New Lungs Ukulele


Song lyrics



↑ Back to top | Tablatures and chords are parodies/interpretations of the original songs. You may use it for private study, scholarship, research or language learning purposes only
© 2014 AZChords.com Contact us | Privacy policy | DMCA | Add/correct tabs | Request tabs | Top 50 tabs