>
 >
Faceless

Faceless Guitar Tabs

Underneath The Gun - Faceless chords, tabs, tablatures, lyrics

Guitar lessons | Add/correct | Request | Top 50 tabs Artists:  A B C D E F G H I J K L M N O P Q R S T U V W X Y Z 0-9

Faceless Guitar Tabs – Underneath The Gun

CD, Sheet music, Poster

Do you like Faceless? Share with your friends now
Tabs
                                    FACELESS
                        As recorded by Underneath The Gun
                       (From the 2006 Album THE AWAKENING)

Music by Underneath The Gun

Gtr I (B Gb B E Ab Db) - 'Left'
Gtr II (B Gb B E Ab Db) - 'Right'

 Intro          Intro Trem. Part
  Q=142          Q=216
  D5             N.C.
 2/4            4/4
  Gtr I
  S S S S Q      S S S S S S S S S S S S S S S S
|------------||----------------------------------|
|------------||o---------------------------------|
|------------||----------------------------------|
|------------||------------------3-3-3-3-2-2-2-2-|
|-0-0-0-0----||o---------------------------------|
|-0-0-0-0----||--0-0-0-0-3-3-3-3-----------------|
|
| Gtr II
| S S S S Q      S S S S S S S S S S S S S S S S
|------------||----------------------------------|
|------------||o---------------------------------|
|------------||----------------------------------|
|------------||------------------3-3-3-3-2-2-2-2-|
|-0-0-0-0----||o---------------------------------|
|-0-0-0-0----||--0-0-0-0-3-3-3-3-----------------|


  S S S S S S S S S S S S S S S S
|-----------------------------------|
|-----------------------------------|
|-----------------------------------|
|-------------------------3-3-3-3---|
|-1-1-1-1-0-0-0-0-------------------|
|-----------------3-3-3-3-----------|
|
| S S S S S S S S S S S S S S S S
|-----------------------------------|
|-----------------------------------|
|-----------------------------------|
|-------------------------3-3-3-3---|
|-1-1-1-1-0-0-0-0-------------------|
|-----------------3-3-3-3-----------|


  N.C.
  S S S S S S S S S S S S S S S S   S S S S S S S S S S S S S S S S  4x
|---------------------------------|----------------------------------||
|---------------------------------|---------------------------------o||
|---------------------------------|----------------------------------||
|-----------------3-3-3-3-2-2-2-2-|----------------------------------||
|---------------------------------|-1-1-1-1-0-0-0-0-----------------o||
|-0-0-0-0-3-3-3-3-----------------|-----------------3-3-3-3-2-2-2-2--||
|
| S S S S S S S S S S S S S S S S   S S S S S S S S S S S S S S S S  4x
|---------------------------------|----------------------------------||
|---------------------------------|---------------------------------o||
|---------------------------------|----------------------------------||
|-----------------3-3-3-3-2-2-2-2-|----------------------------------||
|---------------------------------|-1-1-1-1-0-0-0-0-----------------o||
|-0-0-0-0-3-3-3-3-----------------|-----------------3-3-3-3-2-2-2-2--||


    N.C.
    S S S S S S S S S S S S S S S S   S S S S S S S S S S S S S S S S   4x
||----------------------------------|-----------------------------------||
||o---------------------------------|----------------------------------o||
||------------------3-3-3-3-2-2-2-2-|-----------------------------------||
||--0-0-0-0-3-3-3-3-----------------|-5-5-5-5-4-4-4-4-5-5-5-5-4-4-4-4---||
||o---------------------------------|----------------------------------o||
||----------------------------------|-----------------------------------||
|
|   S S S S S S S S S S S S S S S S   S S S S S S S S S S S S S S S S   4x
||----------------------------------|-----------------------------------||
||o---------------------------------|----------------------------------o||
||------------------3-3-3-3-2-2-2-2-|-----------------------------------||
||--0-0-0-0-3-3-3-3-----------------|-5-5-5-5-4-4-4-4-5-5-5-5-4-4-4-4---||
||o---------------------------------|----------------------------------o||
||----------------------------------|-----------------------------------||


    N.C.
    S S S S S S S S S S S S S S S S   S S S S S S S S S S S S S S S S
||----------------------------------|-----------------------------------||
||o---------------------------------|----------------------------------o||
||----------------------------------|-----------------------------------||
||------------------4-4-4-4-3-3-3-3-|-----------------------------------||
||o-0-0-0-0-1-1-1-1-----------------|-4-4-4-4-3-3-3-3-1-1-1-1-0-0-0-0--o||
||----------------------------------|-----------------------------------||
|
|   S S S S S S S S S S S S S S S S   S S S S S S S S S S S S S S S S
||----------------------------------|-----------------------------------||
||o---------------------------------|----------------------------------o||
||----------------------------------|-----------------------------------||
||------------------4-4-4-4-3-3-3-3-|-----------------------------------||
||o-0-0-0-0-1-1-1-1-----------------|-4-4-4-4-3-3-3-3-1-1-1-1-0-0-0-0--o||
||----------------------------------|-----------------------------------||


 Build-up
  N.C.              D5    N.C.                   D5
  |-3-| |-3-| |-3-|          |-3-| |-3-| |-3-|
  E E E E E E E E E E E   Q  E E E E E E E E E   W
|-----------------------|----------------------|------|
|-----------------------|----------------------|------|
|-----------------------|----------------------|------|
|-----------------------|----------------------|------|
|-4-3-1-3-1-0-------0---|----4-3-1-3-1-0-------|-0----|
|-------------4-3-1-0---|----------------4-3-1-|-0----|
|
| Q     H           E E   W                      W
|-----------------------|----------------------|------|
|-----------------------|----------------------|------|
|-----------------------|----------------------|------|
|-----------------------|----------------------|------|
|-------------------0---|----------------------|-0----|
|-------------------0---|----------------------|-0----|


  F5                               E5
  E Q  E Q  E E   +E  E Q  Q  Q    E Q  E Q  E E   +E  E Q  Q  Q
|---------------|----------------|---------------|----------------|
|---------------|----------------|---------------|----------------|
|---------------|----------------|---------------|----------------|
|---------------|----------------|---------------|----------------|
|-3-3--3-3--3-3-|-(3)-3-3--3--3--|-2-2--2-2--2-2-|-(2)-2-2--2--2--|
|-3-3--3-3--3-3-|-(3)-3-3--3--3--|-2-2--2-2--2-2-|-(2)-2-2--2--2--|
|
| E Q  E Q  E E   +E  E Q  Q  Q    E Q  E Q  E E   +E  E Q  Q  Q
|---------------|----------------|---------------|----------------|
|---------------|----------------|---------------|----------------|
|---------------|----------------|---------------|----------------|
|---------------|----------------|---------------|----------------|
|-3-3--3-3--3-3-|-(3)-3-3--3--3--|-2-2--2-2--2-2-|-(2)-2-2--2--2--|
|-3-3--3-3--3-3-|-(3)-3-3--3--3--|-2-2--2-2--2-2-|-(2)-2-2--2--2--|


  D5
  S S S S S S E H      W
|--------------------|------||
|--------------------|------||
|--------------------|------||
|--------------------|------||
|-0-0-0-0-0----------|------||
|-0-0-0-0-0----------|------||
|
| S S S S S S E H      W
|--------------------|------||
|--------------------|------||
|--------------------|------||
|--------------------|------||
|-0-0-0-0-0----------|------||
|-0-0-0-0-0----------|------||


 Breakdown
  Q=142
  D5
  S S S S S E S S S S S S E S
|-----------------------------|
|-----------------------------|
|-----------------------------|
|-----------------------------|
|-0-0-0-0-0-----0-0-0-0-0-----|
|-0-0-0-0-0-----0-0-0-0-0-----|
|
| S S S S S E S S S S S S E S
|-----------------------------|
|-----------------------------|
|-----------------------------|
|-----------------------------|
|-0-0-0-0-0-----0-0-0-0-0-----|
|-0-0-0-0-0-----0-0-0-0-0-----|


  S E +S  S E S S S S S S E S   S S S S S Q  E +S  S E S
|-----------------------------|--------------------------|
|-----------------------------|--------------------------|
|-----------------------------|--------------------------|
|-----------------------------|--------------------------|
|---0-(0)---0---0-0-0-0-0-----|-0-0-0-0-0----0-(0)---0---|
|---0-(0)---0---0-0-0-0-0-----|-0-0-0-0-0----0-(0)---0---|
|
| S E +S  S E S S S S S S E S   S S S S S Q  E +S  S E S
|-----------------------------|--------------------------|
|-----------------------------|--------------------------|
|-----------------------------|--------------------------|
|-----------------------------|--------------------------|
|---0-(0)---0---0-0-0-0-0-----|-0-0-0-0-0----0-(0)---0---|
|---0-(0)---0---0-0-0-0-0-----|-0-0-0-0-0----0-(0)---0---|


  D5
  S S S S S E S S S S S S E S
|-----------------------------|
|-----------------------------|
|-----------------------------|
|-----------------------------|
|-0-0-0-0-0-----0-0-0-0-0-----|
|-0-0-0-0-0-----0-0-0-0-0-----|
|
| S S S S S E S S S S S S E S
|-----------------------------|
|-----------------------------|
|-----------------------------|
|-----------------------------|
|-0-0-0-0-0-----0-0-0-0-0-----|
|-0-0-0-0-0-----0-0-0-0-0-----|


  S E +S  S E S S S S S S E S   S S S S S S E H
|-----------------------------|--------------------|
|-----------------------------|--------------------|
|-----------------------------|--------------------|
|-----------------------------|--------------------|
|---0-(0)---0---0-0-0-0-0-----|-0-0-0-0-0----------|
|---0-(0)---0---0-0-0-0-0-----|-0-0-0-0-0----------|
|
| S E +S  S E S S S S S S E S   S S S S S S E H
|-----------------------------|--------------------|
|-----------------------------|--------------------|
|-----------------------------|--------------------|
|-----------------------------|--------------------|
|---0-(0)---0---0-0-0-0-0-----|-0-0-0-0-0----------|
|---0-(0)---0---0-0-0-0-0-----|-0-0-0-0-0----------|


  D5
  W          S S S S Q  S S S S Q    +S  Q  S +E  S S S S Q
|----------|-----------------------|-------------------------|
|----------|-----------------------|-------------------------|
|----------|-----------------------|-------------------------|
|----------|-----------------------|-------------------------|
|----------|-0-0-0-0-0--0-0-0-0-0--|-(0)-0--0-(0)-0-0-0-0-0--|
|----------|-0-0-0-0-0--0-0-0-0-0--|-(0)-0--0-(0)-0-0-0-0-0--|
|
| W          S S S S Q  S S S S Q    +S  Q  S +E  S S S S Q
|----------|-----------------------|-------------------------|
|----------|-----------------------|-------------------------|
|----------|-----------------------|-------------------------|
|----------|-----------------------|-------------------------|
|----------|-0-0-0-0-0--0-0-0-0-0--|-(0)-0--0-(0)-0-0-0-0-0--|
|----------|-0-0-0-0-0--0-0-0-0-0--|-(0)-0--0-(0)-0-0-0-0-0--|


  D5
  S S S S S +Q   Q  E +S    S S S S Q  S S S S Q    +S  Q  E +S  S S S S Q
|-------------------------|-----------------------|------------------------|
|-------------------------|-----------------------|------------------------|
|-------------------------|-----------------------|------------------------|
|-------------------------|-----------------------|------------------------|
|-0-0-0-0-0-(0)--0--0-(0)-|-0-0-0-0-0--0-0-0-0-0--|-(0)-0--0-(0)-0-0-0-0-0-|
|-0-0-0-0-0-(0)--0--0-(0)-|-0-0-0-0-0--0-0-0-0-0--|-(0)-0--0-(0)-0-0-0-0-0-|
|
| S S S S S +Q   Q  E +S    S S S S Q  S S S S Q    +S  Q  E +S  S S S S Q
|-------------------------|-----------------------|------------------------|
|-------------------------|-----------------------|------------------------|
|-------------------------|-----------------------|------------------------|
|-------------------------|-----------------------|------------------------|
|-0-0-0-0-0-(0)--0--0-(0)-|-0-0-0-0-0--0-0-0-0-0--|-(0)-0--0-(0)-0-0-0-0-0-|
|-0-0-0-0-0-(0)--0--0-(0)-|-0-0-0-0-0--0-0-0-0-0--|-(0)-0--0-(0)-0-0-0-0-0-|


                          Middle Trem. Part
                           Q=171
  D5                       N.C.
  S S S S Q  Q  E +S  S    S S S S S S S S S S S S S S S S
|-----------------------||---------------------------------|
|-----------------------||---------------------------------|
|-----------------------||---------------------------------|
|-----------------------||---------3-3-3-3-2-2-2-2---------|
|-0-0-0-0-0--0--0-(0)-0-||-0-0-0-0-----------------5-5-5-5-|
|-0-0-0-0-0--0--0-(0)-0-||---------------------------------|
|
| S S S S Q  Q  E +S  S    S S E   Q       H
|-----------------------||---------------------------------|
|-----------------------||---------------------------------|
|-----------------------||---------------------------------|
|-----------------------||---------------------------------|
|-0-0-0-0-0--0--0-(0)-0-||-0-------------------------------|
|-0-0-0-0-0--0--0-(0)-0-||-0-------------------------------|


  S S S S S S S S S S S S S S S S
|-----------------------------------|
|-----------------------------------|
|-----------------------------------|
|-----------------------------------|
|-4-4-4-4-5-5-5-5-1-1-1-1-0-0-0-0---|
|-----------------------------------|
|
| W
|-----------------------------------|
|-----------------------------------|
|-----------------------------------|
|-----------------------------------|
|-----------------------------------|
|-----------------------------------|


  N.C.
  S S S S S S S S S S S S S S S S   S S S S S S S S S S S S S S S S
|---------------------------------|---------------------------------|
|---------------------------------|---------------------------------|
|---------------------------------|---------------------------------|
|---------3-3-3-3-2-2-2-2---------|-----------------2-2-2-2-2-2-2-2-|
|-0-0-0-0-----------------5-5-5-5-|-4-4-4-4-5-5-5-5-----------------|
|---------------------------------|---------------------------------|
|
| S S S S S S S S S S S S S S S S   S S S S S S S S S S S S S S S S
|---------------------------------|---------------------------------|
|---------------------------------|---------------------------------|
|---------------------------------|---------------------------------|
|---------3-3-3-3-2-2-2-2---------|-----------------2-2-2-2-2-2-2-2-|
|-0-0-0-0-----------------5-5-5-5-|-4-4-4-4-5-5-5-5-----------------|
|---------------------------------|---------------------------------|


    N.C.
    S S S S S S S S S S S S S S S S   S S S S S S S S S S S S S S S S
||----------------------------------|----------------------------------|
||o---------------------------------|----------------------------------|
||----------------------------------|----------------------------------|
||----------3-3-3-3-2-2-2-2---------|----------------------------------|
||o-0-0-0-0-----------------5-5-5-5-|-4-4-4-4-5-5-5-5-1-1-1-1-0-0-0-0--|
||----------------------------------|----------------------------------|
|
|   S S S S S S S S S S S S S S S S   S S S S S S S S S S S S S S S S
||----------------------------------|----------------------------------|
||o---------------------------------|----------------------------------|
||----------------------------------|----------------------------------|
||----------3-3-3-3-2-2-2-2---------|----------------------------------|
||o-0-0-0-0-----------------5-5-5-5-|-4-4-4-4-5-5-5-5-1-1-1-1-0-0-0-0--|
||----------------------------------|----------------------------------|


  N.C.
  S S S S S S S S S S S S S S S S   S S S S S S S S S S S S S S S S  4x
|---------------------------------|----------------------------------||
|---------------------------------|---------------------------------o||
|---------------------------------|----------------------------------||
|---------3-3-3-3-2-2-2-2---------|-----------------2-2-2-2-2-2-2-2--||
|-0-0-0-0-----------------5-5-5-5-|-4-4-4-4-5-5-5-5-----------------o||
|---------------------------------|----------------------------------||
|
| S S S S S S S S S S S S S S S S   S S S S S S S S S S S S S S S S  4x
|---------------------------------|----------------------------------||
|---------------------------------|---------------------------------o||
|---------------------------------|----------------------------------||
|---------3-3-3-3-2-2-2-2---------|-----------------2-2-2-2-2-2-2-2--||
|-0-0-0-0-----------------5-5-5-5-|-4-4-4-4-5-5-5-5-----------------o||
|---------------------------------|----------------------------------||


   Breakdown II
    Q=118
    D5                                                          F#F5F#N.C.
                                                                       ~~~
                                                                |-3-|
    S S S S S S E. E. Q    +E  Q  +E  S S S S S S E   +S  E. Q  E E E  Q
||-----------------------|--------------------------|----------------------|
||o----------------------|--------------------------|----------------------|
||-----------------------|--------------------------|----------------------|
||-----------------------|--------------------------|----------------------|
||o-0-0-0-0-0-0-0--0--0--|-(0)-0--(0)-0-0-0-0-0-0-0-|-(0)-0--0--4-3-4-[3]--|
||--0-0-0-0-0-0-0--0--0--|-(0)-0--(0)-0-0-0-0-0-0-0-|-(0)-0--0--4-3-4------|
|
|                                                                      ~~~
|                                                               |-3-|
|   S S S S S S E. E. Q    +E  Q  +E  S S S S S S E   +S  E. Q  E E E  Q
||-----------------------|--------------------------|----------------------|
||o----------------------|--------------------------|----------------------|
||-----------------------|--------------------------|----------------------|
||-----------------------|--------------------------|----------------------|
||o-0-0-0-0-0-0-0--0--0--|-(0)-0--(0)-0-0-0-0-0-0-0-|-(0)-0--0--4-3-4-[3]--|
||--0-0-0-0-0-0-0--0--0--|-(0)-0--(0)-0-0-0-0-0-0-0-|-(0)-0--0--4-3-4------|


  D5                                                          F#F5F#N.C.
                                                                     ~~~
                                                              |-3-|
  S S S S S S E. E. Q    +E  Q  +E  S S S S S S E   +S  E. Q  E E E  Q
|----------------------|--------------------------|-----------------------||
|----------------------|--------------------------|----------------------o||
|----------------------|--------------------------|-----------------------||
|----------------------|--------------------------|-----------------------||
|-0-0-0-0-0-0-0--0--0--|-(0)-0--(0)-0-0-0-0-0-0-0-|-(0)-0--0--4-3-4------o||
|-0-0-0-0-0-0-0--0--0--|-(0)-0--(0)-0-0-0-0-0-0-0-|-(0)-0--0--4-3-4-[3]---||
|
|                                                                    ~~~
|                                                             |-3-|
| S S S S S S E. E. Q    +E  Q  +E  S S S S S S E   +S  E. Q  E E E  Q
|----------------------|--------------------------|-----------------------||
|----------------------|--------------------------|----------------------o||
|----------------------|--------------------------|-----------------------||
|----------------------|--------------------------|-----------------------||
|-0-0-0-0-0-0-0--0--0--|-(0)-0--(0)-0-0-0-0-0-0-0-|-(0)-0--0--4-3-4------o||
|-0-0-0-0-0-0-0--0--0--|-(0)-0--(0)-0-0-0-0-0-0-0-|-(0)-0--0--4-3-4-[3]---||


   Breakdown II 1/2
    Q=134
    Eb5                                 N.C.
                               9/16
                                         ~~~
    E S S S S E S S S S E S S   S S E S  Q
||----------------------------|--------------|
||o---------------------------|--------------|
||----------------------------|--------------|
||----------------------------|--------------|
||o-1-1-1-1-1-1-1-1-1-1-1-1-1-|-1-1-1---[4]--|
||--1-1-1-1-1-1-1-1-1-1-1-1-1-|-1-1-1--------|
|
|                                        ~~~
|   E S S S S E S S S S E S S   S S E S  Q
||----------------------------|--------------|
||o---------------------------|--------------|
||----------------------------|--------------|
||----------------------------|--------------|
||o-1-1-1-1-1-1-1-1-1-1-1-1-1-|-1-1-1---[4]--|
||--1-1-1-1-1-1-1-1-1-1-1-1-1-|-1-1-1--------|


  Eb5                                 N.C.
 4/4                         9/16
                                       ~~~
  E S S S S E S S S S E S S   S S E S  Q    3x
|---------------------------|---------------||
|---------------------------|--------------o||
|---------------------------|---------------||
|---------------------------|---------------||
|-1-1-1-1-1-1-1-1-1-1-1-1-1-|-1-1-1--------o||
|-1-1-1-1-1-1-1-1-1-1-1-1-1-|-1-1-1---[4]---||
|
|                                      ~~~
| E S S S S E S S S S E S S   S S E S  Q    3x
|---------------------------|---------------||
|---------------------------|--------------o||
|---------------------------|---------------||
|---------------------------|---------------||
|-1-1-1-1-1-1-1-1-1-1-1-1-1-|-1-1-1--------o||
|-1-1-1-1-1-1-1-1-1-1-1-1-1-|-1-1-1---[4]---||


 Breakdown II
  Q=118
  D5                                                          F#F5F#N.C.
 4/4
                                                                     ~~~
                                                              |-3-|
  S S S S S S E. E. Q    +E  Q  +E  S S S S S S E   +S  E. Q  E E E  Q
|----------------------|--------------------------|----------------------|
|----------------------|--------------------------|----------------------|
|----------------------|--------------------------|----------------------|
|----------------------|--------------------------|----------------------|
|-0-0-0-0-0-0-0--0--0--|-(0)-0--(0)-0-0-0-0-0-0-0-|-(0)-0--0--4-3-4-[3]--|
|-0-0-0-0-0-0-0--0--0--|-(0)-0--(0)-0-0-0-0-0-0-0-|-(0)-0--0--4-3-4------|
|
|                                                                    ~~~
|                                                             |-3-|
| S S S S S S E. E. Q    +E  Q  +E  S S S S S S E   +S  E. Q  E E E  Q
|----------------------|--------------------------|----------------------|
|----------------------|--------------------------|----------------------|
|----------------------|--------------------------|----------------------|
|----------------------|--------------------------|----------------------|
|-0-0-0-0-0-0-0--0--0--|-(0)-0--(0)-0-0-0-0-0-0-0-|-(0)-0--0--4-3-4-[3]--|
|-0-0-0-0-0-0-0--0--0--|-(0)-0--(0)-0-0-0-0-0-0-0-|-(0)-0--0--4-3-4------|


  D5                                                          F#F5F#N.C.
                                                                     ~~~
                                                              |-3-|
  S S S S S S E. E. Q    +E  Q  +E  S S S S S S E   +S  E. Q  E E E  Q
|----------------------|--------------------------|----------------------|
|----------------------|--------------------------|----------------------|
|----------------------|--------------------------|----------------------|
|----------------------|--------------------------|----------------------|
|-0-0-0-0-0-0-0--0--0--|-(0)-0--(0)-0-0-0-0-0-0-0-|-(0)-0--0--4-3-4------|
|-0-0-0-0-0-0-0--0--0--|-(0)-0--(0)-0-0-0-0-0-0-0-|-(0)-0--0--4-3-4-[3]--|
|
|                                                                    ~~~
|                                                             |-3-|
| S S S S S S E. E. Q    +E  Q  +E  S S S S S S E   +S  E. Q  E E E  Q
|----------------------|--------------------------|----------------------|
|----------------------|--------------------------|----------------------|
|----------------------|--------------------------|----------------------|
|----------------------|--------------------------|----------------------|
|-0-0-0-0-0-0-0--0--0--|-(0)-0--(0)-0-0-0-0-0-0-0-|-(0)-0--0--4-3-4------|
|-0-0-0-0-0-0-0--0--0--|-(0)-0--(0)-0-0-0-0-0-0-0-|-(0)-0--0--4-3-4-[3]--|


  D5
  W          +W
|----------|--------|
|----------|--------|
|----------|--------|
|-0--------|-(0)----|
|-0--------|-(0)----|
|-0--------|-(0)----|
|
| W          +W
|----------|--------|
|----------|--------|
|----------|--------|
|-0--------|-(0)----|
|-0--------|-(0)----|
|-0--------|-(0)----|


 Tritone Part
  N.C.
                                                              ~~~
  E S S S S S S H      E S S S S S S H      E  S S S S S S E  Q.
|--------------------|--------------------|------------------------|
|--------------------|--------------------|------------------------|
|--------------------|--------------------|------------------[5]---|
|-----------3-4------|-----------3-4------|------------3-4-3-------|
|-------3-4----------|-------3-4----------|--------3-4-------------|
|-0-3-4--------------|-0-3-4--------------|-0--3-4-----------------|
|
| W                    W                    H.
|--------------------|--------------------|------------------------|
|--------------------|--------------------|------------------------|
|--------------------|--------------------|------------------------|
|--------------------|--------------------|------------------------|
|--------------------|--------------------|------------------------|
|--------------------|--------------------|------------------------|


 Outro Breakdown
  N.C.
  E. E. E H       E. E. E E. E. E   E. E. E E E Q    E. E. E E. E. E
|---------------|-----------------|----------------|-------------------|
|---------------|-----------------|----------------|-------------------|
|---------------|-----------------|----------------|-------------------|
|---------------|-----------------|----------------|-------------------|
|-0--0--0-------|-0--0--0-0--0--0-|-0--0--0-0------|-0--0--0-0--0--0---|
|-1--1--1-------|-1--1--1-1--1--1-|-1--1--1-1------|-1--1--1-1--1--1---|
|
| W               E. E. E E. E. E   E. E. E E E Q    E. E. E E. E. E
|---------------|-----------------|----------------|-------------------|
|---------------|-----------------|----------------|-------------------|
|---------------|-----------------|----------------|-------------------|
|---------------|-----------------|----------------|-------------------|
|---------------|-0--0--0-0--0--0-|-0--0--0-0------|-0--0--0-0--0--0---|
|---------------|-1--1--1-1--1--1-|-1--1--1-1------|-1--1--1-1--1--1---|


  N.C.
                 ~~~~~~~
            |-3--|
  E. E. E E S S  S  +Q     E. E. E E. E. E
|------------------------|-----------------|
|------------------------|-----------------|
|------------------------|-----------------|
|------------------------|-----------------|
|-0--0--0-0-0-0-[3]-(3)--|-0--0--0-0--0--0-|
|-1--1--1-1-1-1----------|-1--1--1-1--1--1-|
|
|                ~~~~~~~
|           |-3--|
| E. E. E E S S  S  +Q     E. E. E E. E. E
|------------------------|-----------------|
|------------------------|-----------------|
|------------------------|-----------------|
|------------------------|-----------------|
|-0--0--0-0-0-0-[3]-(3)--|-0--0--0-0--0--0-|
|-1--1--1-1-1-1----------|-1--1--1-1--1--1-|


  E. E. E E S S E S S   E. E. E E. E. E
|---------------------|-----------------|
|---------------------|-----------------|
|---------------------|-----------------|
|---------------------|-----------------|
|-0--0--0-0-0-0-0-0-0-|-0--0--0-0--0--0-|
|-1--1--1-1-1-1-1-1-1-|-1--1--1-1--1--1-|
|
| E. E. E E S S E S S   E. E. E E. E. E
|---------------------|-----------------|
|---------------------|-----------------|
|---------------------|-----------------|
|---------------------|-----------------|
|-0--0--0-0-0-0-0-0-0-|-0--0--0-0--0--0-|
|-1--1--1-1-1-1-1-1-1-|-1--1--1-1--1--1-|


  N.C.
                                                  ~~~~~~~
                                             |-3--|
  E. E. E H      E. E. E E. E. E   E. E. E E S S  S  +Q     E. E. E E. E. E
|--------------|-----------------|------------------------|----------------|
|--------------|-----------------|------------------------|----------------|
|--------------|-----------------|------------------------|----------------|
|--------------|-----------------|------------------------|----------------|
|-0--0--0------|-0--0--0-0--0--0-|-0--0--0-0-0-0-[3]-(3)--|-0--0--0-0--0--0|
|-1--1--1------|-1--1--1-1--1--1-|-1--1--1-1-1-1----------|-1--1--1-1--1--1|
|
|                                                 ~~~~~~~
|                                            |-3--|
| E. E. E H      E. E. E E. E. E   E. E. E E S S  S  +Q     E. E. E E. E. E
|--------------|-----------------|------------------------|----------------|
|--------------|-----------------|------------------------|----------------|
|--------------|-----------------|------------------------|----------------|
|--------------|-----------------|------------------------|----------------|
|-0--0--0------|-0--0--0-0--0--0-|-0--0--0-0-0-0-[3]-(3)--|-0--0--0-0--0--0|
|-1--1--1------|-1--1--1-1--1--1-|-1--1--1-1-1-1----------|-1--1--1-1--1--1|


  N.C.                                                          D5
  E. E. E E S S E S S   E. E. E E. E. E   E. E. E E S S E S S   E E Q  H
|---------------------|-----------------|---------------------|------------|
|---------------------|-----------------|---------------------|------------|
|---------------------|-----------------|---------------------|------------|
|---------------------|-----------------|---------------------|------------|
|-0--0--0-0-0-0-0-0-0-|-0--0--0-0--0--0-|-0--0--0-0-0-0-0-0-0-|-0----------|
|-1--1--1-1-1-1-1-1-1-|-1--1--1-1--1--1-|-1--1--1-1-1-1-1-1-1-|-0----------|
|
| E. E. E E S S E S S   E. E. E E. E. E   E. E. E E S S E S S   E E Q  H
|---------------------|-----------------|---------------------|------------|
|---------------------|-----------------|---------------------|------------|
|---------------------|-----------------|---------------------|------------|
|---------------------|-----------------|---------------------|------------|
|-0--0--0-0-0-0-0-0-0-|-0--0--0-0--0--0-|-0--0--0-0-0-0-0-0-0-|-0----------|
|-1--1--1-1-1-1-1-1-1-|-1--1--1-1--1--1-|-1--1--1-1-1-1-1-1-1-|-0----------|


Duration Legend
---------------
W - whole; H - half; Q - quarter; E - 8th; S - 16th; T - 32nd; X - 64th; a - acciaccatura
+ - note tied to previous; . - note dotted; .. - note double dotted
Uncapitalized letters represent notes that are staccato (1/2 duration)
Irregular groupings are notated above the duration line
Duration letters will always appear directly above the note/fret number it represents the
duration for.  Duration letters with no fret number below them represent rests.  Multi-
bar rests are notated in the form Wxn, where n is the number of bars to rest for.  Low
melody durations appear below the staff

Tablature Legend
----------------
 h   - hammer-on
 p   - pull-off
 b   - bend
 pb  - pre-bend
 r   - bend release (if no number after the r, then release immediately)
 /\  - slide into or out of (from/to "nowhere")
 s   - legato slide
 S   - shift slide
  - natural harmonic
[n]  - artificial harmonic
n(n) - tapped harmonic
 ~   - vibrato
 tr  - trill
 T   - tap
 TP  - trem. picking
 PM  - palm muting
\n/  - tremolo bar dip; n = amount to dip
 \n  - tremolo bar down
 n/  - tremolo bar up
/n\  - tremolo bar inverted dip
 =   - hold bend; also acts as connecting device for hammers/pulls
 <>  - volume swell (louder/softer)
 x   - on rhythm slash represents muted slash
 o   - on rhythm slash represents single note slash

Misc Legend
-----------
 |  - bar
||  - double bar
||o - repeat start
o|| - repeat end
*|  - double bar (ending)
 :  - bar (freetime)
 $  - Segno
 &  - Coda
Tempo markers -  = BPM(8/16=s8/s16), where s8 = swing 8ths, s16 = swing 16th





Comments


Popular Underneath The Gun tabs & chords
Muckraker Bass Tabs
Breathing New Lungs Chords
Cutting Ties, Breathing Lies Tabs
Discordant Tabs
Muckraker Tabs
Muckraker 1 Tabs
Prepare The Bodies Tabs
Reflection Of The Commonwealth Tabs
Romanian With A Glass Eye Tabs
Breathing New Lungs Ukulele


Song lyrics



↑ Back to top | Tablatures and chords are parodies/interpretations of the original songs. You may use it for private study, scholarship, research or language learning purposes only
© 2014 AZChords.com Contact us | Privacy policy | DMCA | Add/correct tabs | Request tabs | Top 50 tabs