>
 >
Discordant

Discordant Bass Tabs

Underneath The Gun - Discordant chords, tabs, tablatures, lyrics

Guitar lessons | Add/correct | Request | Top 50 tabs Artists:  A B C D E F G H I J K L M N O P Q R S T U V W X Y Z 0-9

Discordant Bass Tabs – Underneath The Gun

CD, Sheet music, Poster

Do you like Discordant? Share with your friends now
Bass TabsTabs
Bass tabs for Discordant By UTG.



Intro:
|------------------------------------|
|------------------------------------|
|------------------------------------|
|-4------------4------------3--------|
this is played 4 times.

|---------------------------------------------|
|----------------------------------------6----|  4 times
|-------------------------------3-------------|
|-4------------4------------3-----------------|

|---|-----------------------------------------------------------------------|
|---|---------------8---------------5--------------------------------(X4)---|
|---|------------5----------------5-----------------5--4--------------------|
|-0-|-0--0-0-0-0----------0-0-0-0----------0-0-0-0---------0-0-0-0-0--------|


|--------------------------------------|--------|
|---------8--------5--------4---(X4)---|--------|
|-----5--------5--------5--------------|-4-4----|
|-0------------------------------------|--------|


|---|-----------------------------------------------------------------------|
|---|---------------8---------------5--------------------------------(X2)---|
|---|------------5----------------5-----------------5--4--------------------|
|-0-|-0--0-0-0-0----------0-0-0-0----------0-0-0-0---------0-0-0-0-0--------|


|---------------------------------------------------------------------------|
|-------------------------------------------------------------4--(x2)-------|
|-------------------------5---4---------------------------5-----------------|
|-0---0-0-0-0-0-0-0-0-0-0--------0---0-0-0-0-0-0-0-0-0-0--------------------|

|---------------------------------------------------------------------------|
|------------------------------------------------------------4---(x2)-------|
|-------------------------5---4--------------------------5------------------|
|-0---000-000-000-000-000------------000-000-000-000-000--------------------|

|---------------------------------------------------------------------------|
|---------------------------------------------------------------------------|
|-------------------------------------------------------------------(X2)----|
|-1---1---1-1---1---1-1---1-1-------1-1-1-------1-1-1---4-3-1-3-1-4---------|


|-----|---------------------------------------------------------------------
|-----|---------------------------------------------------------------------
|-----|---------------------------------------------------------------------|
|-0-0-|-1---1---1-1---1---1-1---1-1-------1-1-1-------1-1-1---4-3-1-3-1-4---|
2 times.
|---|
|---|
|---|
|-0-|

then at 2:18

|---|
|---|
|---|
|-0-|

I will put in more later.





Comments


Popular Underneath The Gun tabs & chords
Muckraker Bass Tabs
Breathing New Lungs Chords
Muckraker Tabs
Muckraker 1 Tabs
Plague On Both Ye' Houses Tabs
Prepare The Bodies Tabs
Reflection Of The Commonwealth Tabs
Reflection Of The Commonwealth 1 Tabs
Romanian With A Glass Eye Tabs
Breathing New Lungs Ukulele


Song lyrics



↑ Back to top | Tablatures and chords are parodies/interpretations of the original songs. You may use it for private study, scholarship, research or language learning purposes only
© 2014 AZChords.com Contact us | Privacy policy | DMCA | Add/correct tabs | Request tabs | Top 50 tabs