>
 >
Discordant

Discordant Guitar Tabs

Underneath The Gun - Discordant chords, tabs, tablatures, lyrics

Guitar lessons | Add/correct | Request | Top 50 tabs Artists:  A B C D E F G H I J K L M N O P Q R S T U V W X Y Z 0-9

Discordant Guitar Tabs – Underneath The Gun

CD, Sheet music, Poster

Do you like Discordant? Share with your friends now
Bass TabsTabs
-----------------------------------------------------------------------------
-----------------------------------------------------------------------------

Tuning: Drop B (B, F#, B, E, G#, C#)

[INTRO]

(guitar one X4)
e|---------------------------------------------------------------------------|
B|---------------------------------------------------------------------------|
G|---------------------------------------------------------------------------|
D|---------7---------------7--7-------------6---------------6---6------------|
A|-----4-----4---4-----4----4-----------3-----3---3------3----3--------------|
E|-4-4---4-----4---4-4---4----------3-3---3-----3----3-3---3-----------------|

(guitar two plays these chords over the main riff X4)
e|---------------------------------------------------------------------------|
B|---------------------------------------------------------------------------|
G|---------------------------------------------------------------------------|
D|-7---------------7---------------6-----------------------------------------|
A|-4---------------4---------------3-----------------------------------------|
E|-4---------------4---------------3-----------------------------------------|


e|---------------------------------------------------------------------------|
B|---------------------------------------------------------------------------|
G|---------------------------------------------------------------------------|
D|-7---------------7---------------6-----------6-6-6-6-6-6------(X4)---------|
A|-4---------------4---------------3---3-3-3-3---------------3---------------|
E|-4---------------4---------------3-----------------------------------------|


e|---|-----------------------------------------------------------------------|
B|---|-----------------------------------------------------------------------|
G|---|-----------------------------------------------------------------------|
D|-0-|----------------8---------------5------------------------------(x4)----|
A|-0-|------------5-8-------------5-8-------------5-8-4----------------------|
E|-0-|-0--0-0-0-0--------0-0-0-0---------0-0-0-0--------0-0-0-0-0-0----------|

e|--------------------------------|-------------------------------|----------|
B|--------------------------------|-------------------------------|----------|
G|--------------------------------|-------------------------------|----------|
D|-0-------8-------5---------(x2)-|---------8-------5---------(x2)|----------|
A|-0---5-8-----5-8-----5-8-4------|-----5-8-----5-8-----5-8-4-----|-4-4------|
E|-0------------------------------|-0-----------------------------|----------|

e|---------------------------------------------------------------------------|
B|---------------------------------------------------------------------------|
G|---------------------------------------------------------------------------|
D|----------------8---------------5------------------------------(x2)--------|
A|------------5-8-------------5-8-------------5-8-4--------------------------|
E|-0--0-0-0-0--------0-0-0-0---------0-0-0-0--------0-0-0-0-0-0--------------|

e|---------------------------------------------------------------------------|
B|---------------------------------------------------------------------------|
G|---------------------------------------------------------------------------|
D|-0------------------------------0----------------------------4--(x2)-------|
A|-0-----------------------5-8-4--0------------------------5-8---------------|
E|-0---0-0-0-0-0-0-0-0-0-0--------0---0-0-0-0-0-0-0-0-0-0--------------------|

e|---------------------------------------------------------------------------|
B|---------------------------------------------------------------------------|
G|---------------------------------------------------------------------------|
D|-0------------------------------0---------------------------4---(x2)-------|
A|-0-----------------------5-8-4--0-----------------------5-8----------------|
E|-0---000-000-000-000-000--------0---000-000-000-000-000--------------------|


(play artificial harmonic C# on A string when G# powerchord on 
guitar 2)
e|---------------------------------------------------------------------------|
B|---------------------------------------------------------------------------|
G|---------------------------------------------------------------------------|
D|-1---1---1-1---1---1-1---1-1-------1-1-1-------1-1-1---4-3-1-3-1-4---(x2)--|
A|-0---0---0-0---0---0-0---0-0-------0-0-0-------0-0-0---4-3-1-3-1-4---------|
E|-1---1---1-1---1---1-1---1-1-------1-1-1-------1-1-1---4-3-1-3-1-4---------|

e|-----|---------------------------------------------------------------------|
B|-----|---------------------------------------------------------------------|
G|-----|---------------------------------------------------------------------|
D|-----|-1---1---1-1---1---1-1---1-1-------1-1-1-------1-1-1---4-3-1-3-1-4(x2|
A|-----|-0---0---0-0---0---0-0---0-0-------0-0-0-------0-0-0---4-3-1-3-1-4---|
E|-0-0-|-1---1---1-1---1---1-1---1-1-------1-1-1-------1-1-1---4-3-1-3-1-4---|

Repeat this riff four times, on the fourth time play the last B note once.
e|---|-----------------------------------------------------------------------|
B|---|-----------------------------------------------------------------------|
G|---|-----------------------------------------------------------------------|
D|-0-|10101010------------10101010---------------------99999999---------99999|
A|-0-|--------7777----------------7777-------------7777-------------7777-----|
E|-0-|------------77777777-------------7777777-6666-------------6666---------|

e|---------------------------------------------------------------------------|
B|---------------------------------------------------------------------------|
G|---------------------------------------------------------------------------|
D|-7777-------------7777---------------------66666666---------66666666-(x4)--|
A|-----4444-------------4444-------------4444-------------4444---------------|
E|---------44444444---------44444444-3333-------------3333-------------------|

e|---------------------------------------------------------------------------|
B|---------------------------------------------------------------------------|
G|---------------------------------------------------------------------------|
D|-----6--------6--0000-0-0000-8/--------------------------------------------|
A|---4--------4----0000-0-0000-8/--------------------------------------------|
E|-3--------3------0000-0-0000-8/--------------------------------------------|

e|---------------------------12/17---------------------17/12-----------------|
B|-------------------------13-------------------------------13---------------|
G|-----------------------14-----------------------------------12--(x4)-------|
D|-0000-0-0000---------14----------------------------------------------------|
A|-0000-0-0000-------12------------------------------------------------------|
E|-0000-0-0000-----------------------0000-0-0000-----------------------------|

(guitar one)
e|---------------------------------------------------------------------------|
B|---------------------------------------------------------------------------|
G|---------------------------------------------------------------------------|
D|---------7---------------7--7-------------6---------------6---6-----0------|
A|-----4-----4---4-----4----4-----------3-----3---3------3----3-------0------|
E|-4-4---4-----4---4-4---4----------3-3---3-----3----3-3---3----------0------|

(guitar two plays these chords over the main riff)
e|---------------------------------------------------------------------------|
B|---------------------------------------------------------------------------|
G|---------------------------------------------------------------------------|
D|-7---------------7---------------6----------------------------------0------|
A|-4---------------4---------------3----------------------------------0------|
E|-4---------------4---------------3----------------------------------0------|

| /  slide up
| \  slide down
| h  hammer-on
| p  pull-off
| ~  vibrato
| +  harmonic
| x  Mute note
===============================================================================





Comments


Popular Underneath The Gun tabs & chords
Discordant Bass Tabs
Muckraker Bass Tabs
Breathing New Lungs Chords
Cutting Ties, Breathing Lies Tabs
Faceless Tabs
Muckraker 1 Tabs
Reflection Of The Commonwealth Tabs
Reflection Of The Commonwealth 1 Tabs
Romanian With A Glass Eye Tabs
Breathing New Lungs Ukulele


Song lyrics



↑ Back to top | Tablatures and chords are parodies/interpretations of the original songs. You may use it for private study, scholarship, research or language learning purposes only
© 2014 AZChords.com Contact us | Privacy policy | DMCA | Add/correct tabs | Request tabs | Top 50 tabs