» » »

Skinny Twins Bass tabs (ver.1)

Artists:  A B C D E F G H I J K L M N O P Q R S T U V W X Y Z # 

Skinny Twins Bass tabs (ver.1)

Underground Heroes
Rating:
0/5 (0 votes)

Hard to play? Try these video lessons and learn fast.
                hi,
This skinny twins and im sure its 100% right, it sounds like it anyway and the hardest 
is speed of the song. which u will have to listen to.

When these brackets come up {} the number inside them is how mant times you play that note.

VERSE (ONLY DOES THIS ONE ONCE)
G|--------------------------------------------------------------------------|
D|------------33----------------33-----55------33---------------3333--------|
A|----55--11------33-----55--11----33------55------33--55---11--------3333--|
E|--------------------------------------------------------------------------|
VERSE
G|--------------------------------------------------------------------------|
D|------------33----------------33-----55------33---------------33333333{8}-|
A|----55--11------33-----55--11----33------55------33--55---11--------------|
E|--------------------------------------------------------------------------|
BRIDGE
G|--------------------------------------------|
D|----3--------55-----------------------------|         x3
A|---------55------5-3-1-0--------------------|
E|--------------------------------------------|
CHORUS
G|---------------------------------------------------------------------|
D|---------------------------------------------------------------------|  x2
A|-------55-----5------------55-------5---------55-----5---------5---5-|
E|---3-------3-----------3--------3----------3------3-------3/5----5---|

ending note (before you go back to verse)

A|----3333333333333333{16}
            
Hard to play? Try these video lessons and learn fast. | Correct




comments powered by Disqus
↑ Back to top | Tablatures and chords are parodies/interpretations of the original songs. You may use it for private study, scholarship, research or language learning purposes only