» » »

Undercast, Without You Tabs (ver.1)

Artists:  A B C D E F G H I J K L M N O P Q R S T U V W X Y Z # 

Without You Tabs (ver.1)

Undercast Tabs
Rating:
5/5 (1 vote)
Without You lessons Tabs too difficult? Try these video lessons and learn fast
                
intro
e|--------------------------|
b|--------------------------|
g|--------------------------|2x
d|77777777777666666655555555|
a|77777777777888888833333333|
E|55555555555666666622222222|

verse I
guitar I
e|13---------8/7---12-12-12--19---0-0-0-----13|
b|----14---------------------------------12---|
g|--------------------------------------------|
d|--------------------------------------------|
a|--------------------------------------------|
E|--------------------------------------------|

guitar II
e|14---------8/3----12--16--16-16---12------15|
b|----13--------------------------------------|
g|---------------------------------0-0-0------|
d|--------------------------------------------|
a|--------------------------------------------|
E|--------------------------------------------|

chorus
guitar I
e|------------------------------|
b|------------------------------|
g|------------------------------|
d|555555555----------99999999999|
a|555555555888888888877777777777|
E|333333333666666666699999999999|

guitar II
e|------------------0---3-5-6-7-|
b|1---5-7----7/9--12------------|
g|------------------------------|
d|------------------------------|
a|------------------------------|
E|------------------------------|

verse II
guitar I & II
e|------------------------------|
b|------------------------------|
g|------------------------------|
d|222222222277777777777888888888|
a|222222222277777777777666666666|
E|000000000055555555555888888888|

bridge
guitar I
e|-------------------------|
b|-------------------------|
g|777---444---666--888--333|
d|xxx---xxx---xxx--xxx--xxx|
a|555---222---444--666--111|
E|-------------------------|

guitar II
e|------------------------|
b|------------------------|
g|------------------------|
d|---222---222---222---222|
a|---222---222---222---222|
E|---000---000---000---000|

end on
guitar I & II
e|----------|
b|----------|
g|----------|
d|----------|
a|2-5-7-9-11|
E|0-3-5-7-9-|
            

comments powered by Disqus
↑ Back to top | Undercast Tabs for Without You. Lyrics for acoustic guitar and electric guitar. Tablatures and chords are parodies/interpretations of the original songs. You may use it for private study, scholarship, research or language learning purposes only