» » »

Undeclinable Ambuscade, Trapped Bass tabs (ver.1)

Artists:  A B C D E F G H I J K L M N O P Q R S T U V W X Y Z # 

Trapped Bass tabs (ver.1)

Undeclinable Ambuscade Tabs
Rating:
0/5 (0 votes)
Hard to play? Try these video lessons and learn fast.
                verse 1:
G:------
D:------
A:-0-3-- X 4
E:------

chorus 1:
G:------------
D:------------
A:-0>-3>------ X 4
E:-------1-1--

verse 2:
G:------------
D:------------
A:-0>-3>-\8>-- X 4
E:------------

chorus 2:
G:------------
D:------------
A:-0>-3>------ X 4
E:-------1-1--

G:------------------
D:------------------
A:-3-3-------------- X 4
E:-----5-5-0-0-1-1--

G:--------------
D:--------------
A:-3>-5>-8>----- X 2
E:----------6>--

verse 2:
chorus 2

over solo:
G:-----------
D:-----------
A:-0>-3>----- X 4
E:-------1>--

last chorus & outro:
G:------------
D:------------ 'til forever
A:-0>-3>-\8>-- 
E:------------
            

comments powered by Disqus
↑ Back to top | Undeclinable Ambuscade Bass for Trapped. Lyrics for acoustic guitar and electric guitar. Tablatures and chords are parodies/interpretations of the original songs. You may use it for private study, scholarship, research or language learning purposes only