» » »

Undeclinable Ambuscade, Throw Away Society Tabs (ver.1)

Artists:  A B C D E F G H I J K L M N O P Q R S T U V W X Y Z # 

Throw Away Society Tabs (ver.1)

Undeclinable Ambuscade Tabs
Rating:
0/5 (0 votes)
Throw Away Society lessons Tabs too difficult? Try these video lessons and learn fast
                Intro 
|----------| 
|----------| 
|-3--5--8--| 
|-3--5--8--| 
|-1--3--6--| 
|----------| 

Verse 
|-----------| 
|-----------| 
|--3--5--8--| 
|--3--5--8--| 
|--1--3--6--| 
|-----------| 

Chorus 
|-----------| 
|-----------| 
|--3--5-----| 
|--3--5--6--| 
|--1--3--6--| 
|--------4--| 

Solo 1 (Guitar 2) 
|--1--3--1-------------| 
|------------4---------| 
|---------------1------| 
|------------------3---| 
|----------------------| 
|----------------------| 

Solo 2 (Guitar 2) 
|--13--6----6--13-----| 
|----------8----------| 
|---------------------| 
|---------------------| 
|---------------------| 
|---------------------| 

Outro 
|-----------------------| 
|-----------------------| 
|--3--5--8--7--5--3--3--| 
|--3--5--8--7--5--3--3--| 
|--1--3--6--5--3--1--1--| 
|-----------------------| 

- Intro x1 
- Intro/Solo1 x2 
- Verse x2 
- Pause x1 (Bass Solo - Find it at Bass section) 
- Solo2 x1 
- Chorus x4 
- Verse x4 
- Pause x1 
- Solo 2 x1 
- Chorus x4 
- Outro x1
            

comments powered by Disqus
↑ Back to top | Undeclinable Ambuscade Tabs for Throw Away Society. Lyrics for acoustic guitar and electric guitar. Tablatures and chords are parodies/interpretations of the original songs. You may use it for private study, scholarship, research or language learning purposes only