» » »

Since Tabs (ver.1)

Artists:  A B C D E F G H I J K L M N O P Q R S T U V W X Y Z # 

Since Tabs (ver.1)

Undeclinable Ambuscade
Rating:
0/5 (0 votes)

Hard to play? Try these video lessons and learn fast.
                The Chords: 
e|---------------------------------------------------------------------------| 
B|---------------------------------------------------------------------------| 
G|-----------------7---------------------------------------------------------| 
D|-2---4---5---7---7---------------------------------------------------------| 
A|-2---4---5---7---5---------------------------------------------------------| 
E|-0---2---3---5-------------------------------------------------------------| 
E F# G A D 

Intro: Rythm Guitar plays: 
e|---------------------------------------------------------------------------| 
B|---------------------------------------------------------------------------| 
G|---------------------------------------------------------------------------| 
D|---7-7-7-7-7-7---7-7-7----5-4-2--------------------------------------------| 
A|---7-7-7-7-7-7---7-7-7----5-4-2--------------------------------------------| 
E|---5-5-5-5-5-5---5-5-5----3-2-0--------------------------------------------| 
Palm Mute 

Lead Guitar Plays: 
e|---------------------------------------------------------------------------| 
B|---------------------------------------------------------------------------| 
G|---------------------------------------------------------------------------| 
D|---7-7-7-7-7-7---7-7-7----5-4-2--------------------------------------------| 
A|---------------------------------------------------------------------------| 
E|---------------------------------------------------------------------------| 

Song Body: 
F# A 
We're here since '92. 
D 
If that's not punk enough for you. 
F# A 
Then open up your ears. 
D 
And we'll ask a question. 
F# A 
What is in a name? 
D 
Call Billy, Jane! He's still the same. 
F# A 
It's not on us to blame. 
D 
If you don't understand. 
G ( PALM MUTED ) 
Go *** yourself with your difficult name. 

PLAY INTRO x2, THEN THE ENDING: 
e|---------------------------------------------3-----------------------------| 
B|---------------------------------------------2-----------------------------| 
G|----------------7----------------------------3-----------------------------| 
D|----------------7----------------------------0-----------------------------| 
A|---4-4-4-4-4-4--5---4-4-4-4-4-4-4--4-4-4-----------------------------------| 
E|---2-2-2-2-2-2------2-2-2-2-2-2-2--2-2-2-----------------------------------| 

PM OPEN PM PM OPEN ( LET RING ) 

That's it!! enjoy!! listen to the original track for the timing, strumming etc...
            
Hard to play? Try these video lessons and learn fast. | Correct




comments powered by Disqus
↑ Back to top | Tablatures and chords are parodies/interpretations of the original songs. You may use it for private study, scholarship, research or language learning purposes only