» » »

Undeclinable Ambuscade, Alcohol Bass tabs (ver.1)

Artists:  A B C D E F G H I J K L M N O P Q R S T U V W X Y Z # 

Alcohol Bass tabs (ver.1)

Undeclinable Ambuscade Tabs
 Rating:
4/5 (4 votes)
Alcohol lessons Tabs too difficult? Try these video lessons and learn fast
                intro
G:---------------------------------|     |----------------
D:---------------------------------|     |----------------
A:-4-4-4-4---------1-1-1-1-2-2-2-2-| X 4 |-4-4-4-4-4-4-4--
E:---------2-2-2-2-----------------|     |----------------

verse
G:---------------|     |-----------
D:---------------|     |-----------
A:----1>-2----4>-| X 3 |----1>-2>--
E:-2>------2>----|     |-2>--------

chorus
G:--------------
D:--------------
A:----4>-1>-2>-- X 2
E:-2>-----------

bridge
G:-------------|     |----------------
D:-------------|     |----------------
A:-4>----------| X 4 |-4-4-4-4-4-4-4--
E:----5>-4>-2>-|     |----------------

verse 2
G:---------------|     |-----------
D:---------------|     |-----------
A:----1>-2----4>-| X 4 |----1>-2>--
E:-2>------2>----|     |-2>--------

chorus 'til fade out
            
Submit corrections

comments powered by Disqus
↑ Back to top | Undeclinable Ambuscade Bass for Alcohol. Lyrics for acoustic guitar and electric guitar. Tablatures and chords are parodies/interpretations of the original songs. You may use it for private study, scholarship, research or language learning purposes only