» » »

Undeclinable Ambuscade, African Song Tabs (ver.1)

Artists:  A B C D E F G H I J K L M N O P Q R S T U V W X Y Z # 

African Song Tabs (ver.1)

Undeclinable Ambuscade Tabs
 Rating:
4/5 (4 votes)
African Song lessons Tabs too difficult? Try these video lessons and learn fast
1
                Undeclinable - African Song

They changed the name form Undeclinable Ambuscade in to Undecliable, but I submit this tab under Undeclinable Ambuscade, because there where more tabs, so it's easyer..


Intro
|----------------|
|----------------|
|----------------|
|-2--2/7--7-6--6-|
|----------------|
|----------------|
|	    
| (palm mute)    
|----------------|
|----------------|
|----------------|
|-7-77777--------|
|-7-77777-(etc)--|
|-5-55555--------|


Verse 
|--------------------|
|--------------------|
|---------7777-9999--|
|-7777777-7777-9999--|
|-7777777-5555-7777--|
|-5555555------------|


Riff 1 (palm mute)
|----------------------------------|
|----------------------------------|
|-----------------7-77777-9-99999--|
|-7-77777-7-77777-7-77777-9-99999--|
|-7-77777-7-77777-5-55555-7-77777--|
|-5-55555-5-55555------------------|


Pre Brige
|--------------------------|
|--------------------------|
|------------7-777--9-999--|
|-7-7777777--7-777--9-999--|
|-7-7777777--5-555--7-777--|
|-5-5555555----------------|
pm  .......    ...    ...


Brige
|-x-5-x-5-x-5-x-5-x-5-x-5-x-5-x-5--|
|-x-5-x-5-x-5-x-5-x-5-x-5-x-5-x-5--|
|-x-6-x-6-x-6-x-6-x-6-x-6-x-6-x-6--|
|-x-7-x-7-x-7-x-7-x-7-x-7-x-7-x-7--|
|-x-7-x-7-x-7-x-7-x-7-x-7-x-7-x-7--|
|-x-5-x-5-x-5-x-5-x-5-x-5-x-5-x-5--|
|		       
|-x-5-x-5-x-5-x-5-x-7-x-7-x-7-x-7--|
|-x-7-x-7-x-7-x-7-x-9-x-9-x-9-x-9--|
|-x-7-x-7-x-7-x-7-x-9-x-9-x-9-x-9--|
|-x-7-x-7-x-7-x-7-x-9-x-9-x-9-x-9--|
|-x-5-x-5-x-5-x-5-x-7-x-7-x-7-x-7--|
|----------------------------------|


Structure:
 
Intro
Verse
Riff 1 
Verse
Pre Brige
Brige
Verse
            
Submit corrections

comments powered by Disqus
↑ Back to top | Undeclinable Ambuscade Tabs for African Song. Lyrics for acoustic guitar and electric guitar. 1 Tablatures and chords are parodies/interpretations of the original songs. You may use it for private study, scholarship, research or language learning purposes only