>
 >
Full Circle

Full Circle Guitar Tabs

Und1sclosed - Full Circle chords, tabs, tablatures, lyrics

Guitar lessons | Add/correct | Request | Top 50 tabs Artists:  A B C D E F G H I J K L M N O P Q R S T U V W X Y Z 0-9

Full Circle Guitar Tabs – Und1sclosed

CD, Sheet music, Poster

Do you like Full Circle? Share with your friends now
Tabs
such a beutiful song written and compoased by Dale C.
enjoy it, sorry no lyrics yet.

[RIFF] E               D
|------------------------------------------------------------------------------
|------------------------------------------------------------------------------
|14-14--14-14-14-12--12-12--12-12-12-12-11-11--11-11-11-12\11-11-11-12\11-11-11
|------------------------------------------------------------------------------
|12-12--12-12-12-10--10-10--10-10-10-10-9--9---9--9--9--10\9--9--9--10\9--9--9-
|------------------------------------------------------------------------------

 C                                      E               D
|------------------------------------------------------------------------------
|------------------------------------------------------------------------------
|14-14--14-14-14-12--12-12--16-16-16-16-11-11--11-11-11-12\11-11-11-12\11-11-11
|------------------------------------------------------------------------------
|12-12--12-12-12-10--10-10--14-14-14-14-9--9---9--9--9--10\9--9--9--10\9--9--9-
|------------------------------------------------------------------------------  



[VERSO] 
 C                           E           G 
|0--0--0-0-0-0--0-0--0-0-0-0-0--0--0-0-0-0--0-0--0-0-0-0-
|0--0--0-0-0-0--0-0--0-0-0-0-0--0--0-0-0-0--0-0--0-0-0-0-
|4--4--4-4-4-4--4-4--4-4-4-4-4--4--4-4-4-4--4-4--4-4-4-4-
|2--2--2-2-2-2--2-2--2-2-2-2-2--2--2-2-2-0--0-0--0-0-0-0-
|3--3--3-3-3-3--3-3--3-3-3-3-2--2--2-2-2-2--2-2--2-2-2-2-
|----------------------------0--0--0-0-0-3--3-3--3-3-3-3-
      

 C                           A 
|0--0--0-0-0-0--0-0--0-0-0-0-0----------------------------
|0--0--0-0-0-0--0-0--0-0-0-0-0------------0(only 2nd time)-
|4--4--4-4-4-4--4-4--4-4-4-4-4----------------------------
|2--2--2-2-2-2--2-2--2-2-2-2-2----------------------------
|3--3--3-3-3-3--3-3--3-3-3-3-0----------------------------
|---------------------------------------------------------

 



[RIT]
 G                          Em
|---------------------------0-0--3-3-3-3--3-3--3-3-3-3-
|---------------------------0-0--0-0-0-0--0-0--0-0-0-0-
|4-4--4-4-4-4--4-4--4-4-4-4-0-0--0-0-0-0--0-0--0-0-0-0-
|5-5--5-5-5-5--5-5--5-5-5-5-2-2--2-2-2-2--2-2--2-2-2-2-
|5-5--5-5-5-5--5-5--5-5-5-5-2-2--2-2-2-2--2-2--2-2-2-2-
|3-3--3-3-3-3--3-3--3-3-3-3-0-0--0-0-0-0--0-0--0-0-0-0-

solo

 C                          D                          
|------------------------------------------------------
|5-5--5-5-5-5--5-5--5-5-5-5-7-7--7-7-7-7---------------
|5-5--5-5-5-5--5-5--5-5-5-5-7-7--7-7-7-7---------------
|5-5--5-5-5-5--5-5--5-5-5-5-7-7--7-7-7-7---------------
|3-3--3-3-3-3--3-3--3-3-3-3-5-5--5-5-5-5---------------
|---------------------------------------x/\-x/\-x/\-x/\ (<-slide) 



 G                          Em
                    

 C                          D 








[BRIDGE]
 C5                   C(5b)       C5         E5              D5
|-----------------------------------------------------------------------------
|-----------------------------------------------------------------------------
|---------------------------------------------9-9-9-9-9-9-9-9-7-7-7-7-7-7-7-7-
|10-10-10-10-10-10-10-10-10-10-10-10-10-10-10-9-9-9-9-9-9-9-9-7-7-7-7-7-7-7-7-
|10-10-10-10-10-10-10-9--9--9--9--10-10-10-10-7-7-7-7-7-7-7-7-5-5-5-5-5-5-5-5-
|8--8--8--8--8--8--8--8--8--8--8--8--8--8--8----------------------------------



 C5                   C(5b)       C5         E5              D5             



 C5                   C(5b)       C5         E5              D5



 C5                   C(5b)       C5         E5              D5



 C5                   C(5b)       C5         E5              D5



 C5                   C(5b)       C5         E5              D5
                          



[RIFF FINALE]


w/phaser                                                                             |------------------------------------------------------------
|------------------------------------------------------------
|12\11-11-11-12\11-11-11-12\11-11-11-12\11-11-11-12\11-11-11-
|------------------------------------------------------------                       |10\9--9--9--10\9--9--9--10\9--9--9--10\9--9--9--10\9--9--9--
|------------------------------------------------------------


 E                      D  E                      
|----------------------------------------------------------------
|----------------------------------------------------------------
|12\--x-x-x-x-x-x-x-x-x-11/12-12-12-12-12-12-12\-x-x-x-x-x-x-x-x-
|-----x-x-x-x-x-x-x-x-x--------------------------x-x-x-x-x-x-x-x-
|10\--x-x-x-x-x-x-x-x-x-9-/10-10-10-10-10-10-10\-x-x-x-x-x-x-x-x-
|----------------------------------------------------------------

 D  E                 D                  D  E             
|----------------------------------------------------------------
|----------------------------------------------------------------
|11/12-12-12-12-12-12-11\--x-x-x-x-x-x-x-11/12-12-12-12-12-12-12\
|--------------------------x-x-x-x-x-x-x-------------------------
|9-/10-10-10-10-10-10-9-\--x-x-x-x-x-x-x-9-/10-10-10-10-10-10-10\
|----------------------------------------------------------------

                   D  E                                        
|---------------------------------------
|---------------------------------------
|x-x-x-x-x-x-x-x-x-11/12-12-12-12-12-12-
|x-x-x-x-x-x-x-x-x----------------------
|x-x-x-x-x-x-x-x-x-9-/10-10-10-10-10-10-
|---------------------------------------


 phaser
 C                                   E                 G
|------------------------------------------------------------------
|------------------------------------------------------------------
|14-14-14-14-14-14-11/12-12-12-12-12-11-11-11-11-11-11-12-12-12-12-
|------------------------------------------------------------------               |12-12-12-12-12-12-9-/10-10-10-10-10-9--9--9--9--9--9--10-10-10-10-
|------------------------------------------------------------------

 C                                   E                 G
|------------------------------------------------------------------
|------------------------------------------------------------------
|16-16-16-16-16-16-11/12-12-12-12-12-11-11-11-11-11-11-12-12-12-12-
|------------------------------------------------------------------
|14-14-14-14-14-14-9-/10-10-10-10-10-9--9--9--9--9--9--10-10-10-10-
|------------------------------------------------------------------


|------------------------------------------------------------------------------
|------------------------------------------------------------------------------
|16-16-16-16-16-16-19-19-19-19-19-19-19-21-21-21-21-21-21-21-21-21-21-21-21-21-
|------------------------------------------------------------------------------
|14-14-14-14-14-14-17-17-17-17-17-17-17-19-19-19-19-19-19-19-19-19-19-19-19-19-
|------------------------------------------------------------------------------



|---------------------------------------------------------------------------
|---------------------------------------------------------------------------
|21--------21----21\19--19\17----16--16/19-19\14\12-12----12\11-11/12----12-
|---------------------------------------------------------------------------
|19-----19----19--------------15-14--14/17----12\10----10-------9-/10-10----
|---------------------------------------------------------------------------

|---------------------------------------------------------------------------
|---------------------------------------------------------------------------
|--11/12-12\7-7/9-9\4---4/7-7---7\------------------------------------------
|---------------------------------------------------------------------------
|9---------\5-5/7-----2--/5---5----3----------------------------------------
|---------------------------------------------------------------------------


Timmy P





Comments


Popular Und1sclosed tabs & chords
Again And Again Tabs
Dirty Words Tabs
Kick Out The Jams Tabs
Saved Tabs
Silent Shadow Tabs


Song lyrics



↑ Back to top | Tablatures and chords are parodies/interpretations of the original songs. You may use it for private study, scholarship, research or language learning purposes only
© 2014 AZChords.com Contact us | Privacy policy | DMCA | Add/correct tabs | Request tabs | Top 50 tabs