» » »

Again And Again Tabs (ver.1)

Artists:  A B C D E F G H I J K L M N O P Q R S T U V W X Y Z # 

Again And Again Tabs (ver.1)

Und1sclosed
Rating:
0/5 (0 votes)

Hard to play? Try these video lessons and learn fast.
                standurd, heavy crunch distortion

intro :


e---------------------------
b---------------------------
g------------------99999----
d--777777--999999--99999888-
a--777777--999999--77777777-
E--444444--777777-----------



Interlude:

e-------------------------------------------------------
b-------------------------------------------------------
g------------------99999-11-11-11-11-11--13-13-13-13-13-
d--777777--999999--99999-11-11-11-11-11--13-13-13-13-13-
a--777777--999999--77777-9--9--9--9--9---11-11-11-11-11-
E--444444--777777---------------------------------------


e-----------------
b--5-5-5-5-5-5-5-6
g--5-5-5-6-5-5-5-5       
d--5-5-5-5-5-5-5-5
a-----------------
E-----------------
            
Hard to play? Try these video lessons and learn fast. | Correct




comments powered by Disqus
↑ Back to top | Tablatures and chords are parodies/interpretations of the original songs. You may use it for private study, scholarship, research or language learning purposes only