» » »

Uncommonmenfrommars, Vote For Me Tabs (ver.1)

Artists:  A B C D E F G H I J K L M N O P Q R S T U V W X Y Z # 

Vote For Me Tabs (ver.1)

Uncommonmenfrommars Tabs
 Rating:
4/5 (4 votes)
Vote For Me lessons Tabs too difficult? Try these video lessons and learn fast
                Uncommonmenfrommars
Album : Vote For Me
Pizzaman

EADGBE


Intro
--------------------------|
--------------------------|
-7-----5--7--9-----4--5---| X2
-7--5--5--7--9--7--4--5---|
-5--5--3--5--7--7--2--3---|
----3-----------5---------|


Couplet 1st part
---------------------------------|
---------------------------------|
-7-----5-----7--------9-----12---| X2
-7-----5-----7--------9-----12---|
-5-----3-----5--------7-----10---|
---------------------------------|
..................................pm


Couplet 2nd part
--------------------------|
--------------------------|
-7-----5--7--9-----4--5---| X2
-7--5--5--7--9--7--4--5---|
-5--5--3--5--7--7--2--3---|
----3-----------5---------|
...........................pm

------------------------------------|
------------------------------------|
-7--777-----4-5-5-------------------| X3
-7--777-----4-5-5---5-5--5-5-5--5---|
-5--555-----2-3-3---5-5--5-5-5--5---|
--------------------3-3--3-3-3--3---|
		    .................pm


Refrain
---------------------------------|
---------------------------------|
--7-----5--4---------------------|
--7--5--5--4--7----5-5---55--5---|
--5--5--3--2--7----5-5---55--5---|
-----3--------5----3-3---33--3---|
			 .........pm


----------------------|
----------------------|
-7-----5--4-----------|
-7--5--5--4--7---5----|
-5--5--3--2--7---5----|
----3--------5---3----|


Bridge
------------------------------------------------------|
------------------------------------------------------|
------------------------------------------------------| X2
-4-5-----7-------5-----999-11--12-11--9-9-999--11-7---|
-4-5-5---7---5---5-----999-11--12-11--9-9-999--11-7---|
-2-3-5---5---5---3-----777--9--10--9--7-7-777---9-5---|
-----3-------3----------------------------------------|


Couplet
-----------------------|
-----------------------|
--7-------7------------|
--7-------7------------|
--5--------------------|


Refrain


Outro
------------------------------------------------------------|
------------------------------------------------------------|
--7---5------4-----------7-----------4----------------------| X2
--7---5---5--4---77------7----5--5---4---7---5----------7---|
--5---3---5--2---77------5----5--5---2---7---5----------7---|
----------3------55-----------3--3-------5---3----------5---|
            
Submit corrections

comments powered by Disqus
↑ Back to top | Uncommonmenfrommars Tabs for Vote For Me. Lyrics for acoustic guitar and electric guitar. Tablatures and chords are parodies/interpretations of the original songs. You may use it for private study, scholarship, research or language learning purposes only