» » »

Uncommonmenfrommars, Systems After You Tabs (ver.1)

Artists:  A B C D E F G H I J K L M N O P Q R S T U V W X Y Z # 

Systems After You Tabs (ver.1)

Uncommonmenfrommars Tabs
 Rating:
4/5 (4 votes)
Systems After You lessons Tabs too difficult? Try these video lessons and learn fast
1
                Uncommonmenfrommars
Album : Noise Pollution
System's After You

EADGBE

----------------------------------------|
----------------------------------------|
----------5------------5---5------------|
-7-7------5------7-5-4-5-4-5---4-2------|
-7-7------3------7-5-4-3-4-3---4-3------|
-5-5-------------5-3-2---2-----2-5------|


-----------------|
-----------------|
-------5--7------|
-7--5--5--7------|
-7--5--3--5------|
-5--3------------|

----0---------0------------------|
------0---------0----------------|
---------------------------------|
-4--------5--------77777777777---|
-4--------5--------77777777777---|
-2--------3--------55555555555---|

Ou

----------------------|
----------------------|
----------------------|
-4444-5555-77777777---|
-4444-5555-77777777---|
-2222-3333-55555555---|


Look at me
-----------------------------------|
-----------------------------------|
-77777777--------------------------|
-77777777-55555555-7777777777777---|
-55555555-55555555-7777777777777---|
----------33333333-5555555555555---|

------------------------------------------------------|
------------------------------------------------------|
------------------------------------------------------|Une fois avec palm Mute
-7--7--7--7-7---5--5--5-5---4--4--4--4-4---5--5--5-5--| l'autre fois sans
-7--7--7--7-7---5--5--5-5---4--4--4--4-4---5--5--5-5--|
-5--5--5--5-5---3--3--3-3---2--2--2--2-2---3--3--3-3--|
.........................................................pm

------------------------------------|
------------------------------------|
------------------------------------|
--7---------------7-----------------|
------6---7-----------6---7----10---|
--------------6---------------------|

---------------------------------------|
---------------------------------------|
---------------------------------------|
-77777777-55555555-44444444-55555555---|
-77777777-55555555-44444444-55555555---|
-55555555-33333333-22222222-33333333---|
.........................................pm

-------------------------------------------------------------|
-------------------------------------------------------------|
-------------------------------------------------------------|
-12-12-12\10-10-10\7-7-7\5-5---12-12-12\10-10-10\4-4-4\5-5---|
-------------------------------------------------------------|


-------------------------------------------------|
-------------------------------------------------|
-------------------------------------------------|
-12-12-12\10-10-10\7-7-7\5-5-5---4-4-4-5-5-5-6---|
-------------------------------------------------|

-----------------------------------------------------|
-----------------------------------------------------|
------------------5----------------------------------|
-7-7--------5--4--5-------7-7-7-7-7--7-7--7-7-7-7\---|
-7-7--------5--4----------7-7-7-7-7--7-7--7-7-7-7\---|
-5-5----------------------5-5-5-5-5--5-5--5-5-5-5\---|
            
Submit corrections

comments powered by Disqus
↑ Back to top | Uncommonmenfrommars Tabs for Systems After You. Lyrics for acoustic guitar and electric guitar. 1 Tablatures and chords are parodies/interpretations of the original songs. You may use it for private study, scholarship, research or language learning purposes only