» » »

Uncommonmenfrommars, Noise Pollution Tabs (ver.1)

Artists:  A B C D E F G H I J K L M N O P Q R S T U V W X Y Z # 

Noise Pollution Tabs (ver.1)

Uncommonmenfrommars Tabs
 Rating:
4/5 (4 votes)
Noise Pollution lessons Tabs too difficult? Try these video lessons and learn fast
1
                Uncommonmenfrommars
Album : Noise Pollution

EADGBE

Intro
--------------------------|
--------------------------|
--------------------------|
-9--------------------9---|
-9--------------------9---|
-7--------------------7---|


Couplet
---------------------------------------|
---------------------------------------|
-------------9b7-7--------------9b7-9--|
-77777777777--------77777777777--------|
---------------------------------------|
---------------------------------------|


---------------------------------------|
---------------------------------------|
-------------9b7-7--------------9b7-9--|
-77777777777--------77777777777--------|
---------------------------------------|
---------------------------------------|


---------------------|
---------------------|
-10--9--7---7--------|
-10--9--7---7---5/---|
--8--7--5---5---5/---|
----------------3/---|


Refrain
---------------------------------------|
---------------------------------------|
---------------------------------7-----|
---------------------------------7-7---|
-999999997777777722222222-4-5555-5-7---|
-777777775555555500000000-2-3333---5---|


-----------------------------------------------|
-----------------------------------------------|
---------------------------------7-------------|
-999999997777777722222222-4-5555-7-7-/--10-9---|
-999999997777777722222222-4-5555-5-7-/--10-9---|
-777777775555555500000000-2-3333---5-/---8-7---|


Couplet 2
------------------------------------------------------------------------|
------------------------------------------------------------------------|
------------------------10--9--7------------------------10--9--7--------|
-7-/--9-----------------10--9--7--5-/--9----------------10--9--7--5-/---|
-7-/--9------------------8--7--5--5-/--9-----------------8--7--5--5-/---|
-5-/--7---------------------------3-/--7--------------------------3-/---|


Pont
-------------------------------------|
-------------------------------------|
-4-------5------4--7--5--8---11--9---|
-4---5---5------x--x--x--x----x--x---|
-2---5---3------2--5--3--6----9--7---|
-----3---3---------------------------|


-----------------------------101010101010101010---|
------------------------------9-9-9-9-9-9-9-9-9---|
--------------------------------------------------|
-99999999999999999--------------------------------|
-99999999999999999--------------------------------|
-77777777777777777--------------------------------|


-----------------------------------------------|
-----------------------------------------------|
-----------------------------------------------|
-9999999999999999999999999999999999999999999---|
-9999999999999999999999999999999999999999999---|
-7777777777777777777777777777777777777777777---|


-----------------------------------------------|
-----------------------------------------------|
-----------------------------------------------|
-7777777777777777777777777777777777777777777---|
-7777777777777777777777777777777777777777777---|
-5555555555555555555555555555555555555555555---|


-----------------------------------------------|
-----------------------------------------------|
-----------------------------------------------|
-2222222222222222222222222222222222222222222---|
-2222222222222222222222222222222222222222222---|
-0000000000000000000000000000000000000000000---|


------------------------|
------------------------|
------------------------|
--99-99-99-99-9-9-9-\---|
--99-99-99-99-9-9-9-\---|
--77-77-77-77-7-7-7-\---|
            
Submit corrections

comments powered by Disqus
↑ Back to top | Uncommonmenfrommars Tabs for Noise Pollution. Lyrics for acoustic guitar and electric guitar. 1 Tablatures and chords are parodies/interpretations of the original songs. You may use it for private study, scholarship, research or language learning purposes only