» » »

Liar Tabs (ver.1)

Artists:  A B C D E F G H I J K L M N O P Q R S T U V W X Y Z # 

Liar Tabs (ver.1)

Uncommonmenfrommars
Rating:
0/5 (0 votes)

Hard to play? Try these video lessons and learn fast.
                -------------------------------------------------------------------------------
-------------------------------------------------------------------------------

Tuning: Normal

intro guitare 1&2

e|-----------------|---------------------------------------------------------|
B|--8---8---8---8--|----8--8---8---8-----------------------------------------|
G|--9---9---7---6--|X3--9--9---7---6-----------------------------------------|
D|--9---9---5---5--|----9--9---5---5-----------------------------------------|
A|--7---7---0---0--|----7--7---0---0-----------------------------------------|
E|-----------------|---------------------------------------------------------|
    "   "   "   "       "  "   "   *
riff 1 guitare 1&2 :"Something’s burning in the oven"

e|---------------------------------------------------------------------------|
B|---------------------------------------------------------------------------|
G|--9---8---5----9-----------9---8---5---9-----------------------------------|
D|--9---8---5----9--9--10----9---8---5---9---9---7---------------------------|
A|--7---6---3----7--9--10----7---6---3---7---9---7---------------------------|
E|------------------7--8---------------------7---5---------------------------|
    "   "   "    "  "  "     "   "   "   "   "   "

refrain guitare 1 :"I know You’re just a costume with nothing under it"

e|---------------------------------------------------------------------------|
B|---------------------------------------------------------------------------|
G|---------------------------------------------------------------------------|
D|-4--2--5--5----------------------------------------------------------------|X2
A|-2--2--5--3----------------------------------------------------------------|
E|----0--3-------------------------------------------------------------------|
   "  "  "  "
refrain guitare 1

e|--------3---3--------------------------------------------------------------|
B|--------3---3--------------------------------------------------------------|
G|-4------4---5--------------------------------------------------------------|
D|-4--2---5---5--------------------------------------------------------------|X2
A|-2--2---5---3--------------------------------------------------------------|
E|----0---3------------------------------------------------------------------|
   "  "   *   "
bridge1 guitare 1

e|---------------------------------------------------------------------------|
B|---------------------------------------------------------------------------|
G|--9---5---8----------------------------------------------------------------|
D|--9---5---8----------------------------------------------------------------|
A|--7---3---6----------------------------------------------------------------|
E|---------------------------------------------------------------------------|
    "   "   "
bridge1 guitare 2
e|---------------------------------------------------------------------------|
B|---------------------------------------------------------------------------|
G|---9---9--------9---9------------------------------------------------------|
D|---x---x---X3---x---x------------------------------------------------------|
A|---7---7--------7---7------------------------------------------------------|
E|-0---0---------------------------------------------------------------------|
     "   "        "   "
bridge 2 guitare 1 :"Corrupted minds and wrong decisions"

e|--0-0-0-0-0-0-0-0-0-0-0-0-0-0-0-0--0-0-0-0-0-0-0-0-0-0-0-0-0-0-0-----------|
B|-5-5-5-5-5-5-5-5-4-4-4-4-1-1-1-1--5-5-5-5-5-5-5-5-0-0-0-0-1-1-1-1----------|
G|---------------------------------------------------------------------------|
D|---------------------------------------------------------------------------|
A|---------------------------------------------------------------------------|
E|---------------------------------------------------------------------------|

e|--0-0-0-0-0-0-0-0-0-0-0-0-0-0-0-0--0-0-0-0-0-0-0-0-0-0-0-0-0-0-0-----------|
B|-5-5-5-5-5-5-5-5-4-4-4-4-1-1-1-1--5-5-5-5-5-5-5-5-0-0-0-0-8-8-8-8----------|
G|---------------------------------------------------------------------------|
D|---------------------------------------------------------------------------|
A|---------------------------------------------------------------------------|
E|---------------------------------------------------------------------------|

bridge 2 guitare 2

e|---------------------------------------------------------------------------|
B|---------------------------------------------------------------------------|
G|-9--8--5--9---------99-9-99-9-99-9-99-9-88-8-88-8-55-5-55-5----------------|
D|-9--8--5--9--9--10--99-9-99-9-99-9-99-9-88-8-88-8-55-5-55-5----------------|
A|-7--6--3--7--9--10--77-7-77-7-77-7-77-7-66-6-66-6-33-3-33-3----------------|
E|-------------7--8----------------------------------------------------------|
   x  x  x  x  x  x   xx   xx   xx   xx   xx   xx   xx   xx 
   "  "  "  "  "  "        

e|---------------------------------------------------------------------------|
B|---------------------------------------------------------------------------|
G|-99-9-99-9-99-9-99-9-------------------------------------------------------|
D|-99-9-99-9-99-9-99-9--9--7-------------------------------------------------|
A|-77-7-77-7-77-7-77-7--9--7-------------------------------------------------|
E|----------------------7--5-------------------------------------------------|
   xx   xx   xx   xx    "  "


refrain guitare 1 :"I know You’re just a costume with nothing under it"

e|-----------|---|-----------------------------------------------------------|
B|-----------|---|-----------------------------------------------------------|
G|-----------|---|-----------------------------------------------------------|
D|-4--2---5--|-5-|
        
Hard to play? Try these video lessons and learn fast. | Correct




comments powered by Disqus
↑ Back to top | Tablatures and chords are parodies/interpretations of the original songs. You may use it for private study, scholarship, research or language learning purposes only