» » »

Uncommonmenfrommars, Goodbye My Friend Tabs (ver.1)

Artists:  A B C D E F G H I J K L M N O P Q R S T U V W X Y Z # 

Goodbye My Friend Tabs (ver.1)

Uncommonmenfrommars Tabs
 Rating:
4/5 (4 votes)
Goodbye My Friend lessons Tabs too difficult? Try these video lessons and learn fast
1
                			Uncommonmenfrommars
			    Goodbye my friend


* _ = Slide *

Intro basse

Guitare 1


Intro
E ---------------------------|
b ---------------------------|
G ---------------------------|
D -------9~-----11~------7~--|
A -------9~-----11~------7~--|
D -------9~-----11~------7~--|

Riff 1
E ------------------------------------------------------------------|
b ------------------------------------------------------------------|
G ---------------6-6-6-6--9-9-9-9-9--------------6-6-6-6-9-9-9-9-9--|
D -0-0-0-0-0---------------------------0-0-0-0-0--------------------|
A -0-0-0-0-0---------------------------0-0-0-0-0--------------------|
D -0-0-0-0-0---------------------------0-0-0-0-0--------------------|

E ---------------------------------------------------------------------------------------------------|--|
b ---------------------------------------------------------------------------------------------------|--|
G ---------------11-11-11-11-6-6-6-6-6----------------11-11-11-11-6-6-6-6-6-------|---------------------|
D -5-5-5-5-5----------------------------------5-5-5-5-5-----------------------------------X2|---0~------|
A -5-5-5-5-5----------------------------------5-5-5-5-5---------------------------------------|---0~----|
D -5-5-5-5-5----------------------------------5-5-5-5-5---------------------------------------|---0~----|

 Couplet
E -------------------------------|
b ---------3--------3---3--------|
G ------2--------2---2-----------|
D ---------------------------X4--|
A --2---------0------------------|
D -------------------------------|

Pre-Refrain
E -3-3-3-3-3-3-3-3-3-3-3-3-3-3-2-2-2-2-2-2-2-2-2-2-2-2-2-0-0-0-0-0-0-0-0-0-0-0-0-0-0---|
b -3-3-3-3-3-3-3-3-3-3-3-3-3-3-3-3-3-3-3-3-3-3-3-3-3-3-3---3----2-3-2-3-2-3-2-3-2-3-2--|
G -------------------------------------------------------------------------------------|
D -------------------------------------------------------------------------------------|
A -------------------------------------------------------------------------------------|
D -------------------------------------------------------------------------------------|

Refrain
E --------------------------------------------------------------------------------|
b --------------------------------------------------------------------------------|
G --------------------------------------------------------------------------------|
D -9-9-9-9-9-9-9-9---7-7-7-7-7-7-7-7---5-5-5-5-5-5-5-5---0---5-5-5-5-5-5-5-5--X2--|
A -9-9-9-9-9-9-9-9---7-7-7-7-7-7-7-7---5-5-5-5-5-5-5-5---0---5-5-5-5-5-5-5-5------|
D -9-9-9-9-9-9-9-9---7-7-7-7-7-7-7-7---5-5-5-5-5-5-5-5---0---5-5-5-5-5-5-5-5------|

Riff 1 ( une seule fois )

Couplet
E ---------------------2----------------------------2----------------------------------------2--------|
b ---------2-3----3------3-2-----2---2-3-2--3----3-2-----2----2-3-2-3-2-3-2---3----3-2----------------|
G --------------2----------------2---2----------------------2----2--------------------2------------2--|
D ----------------------------------------------------------------------------------------------------|
A ----0-----------------------------------------------------------------------------------------------|
D ----------------------------------------------------------------------------------------------------|


Pre- Refrain

Refrain

Bridge
E ----------------------------------------------------------------|
b --------------8~------------------------------------------------|
G ----------------------6-7-6-2~-----7-6--------9--7-------7-6~~--|
D -0~----------------------------------------7-0------------------|
A -0~-------------------------------------------------------------|
D -0~-------------------------------------------------------------|


E -----------------------------------------------------------------------------------|
b -----------------------------------------------------------------------------------|
G -----------------------------------------------------------------------------------|
D --5--5--5--5--5--5--5--5--5--5--5--5--0-0-0-0--5--5--5--5--5--5--5--5--5--5--5--5--|
A --5--5--5--5--5--5--5--5--5--5--5--5--0-0-0-0--5--5--5--5--5--5--5--5--5--5--5--5--|
D --5--5--5--5--5--5--5--5--5--5--5--5--0-0-0-0--5--5--5--5--5--5--5--5--5--5--5--5--|
			      x x x x

Refrain
E ------------------------------------------------------------|
b ------------------------------------------------------------|
G ------------------------------------------------------------|
D --9-9-9-9-9-9--0-0-0-0-0-0--5-5-5-5-5-5-0-5-5-5-5-5-5-------|
A --9-9-9-9-9-9--0-0-0-0-0-0--5-5-5-5-5-5-0-5-5-5-5-5-5---X2--|
D --9-9-9-9-9-9--0-0-0-0-0-0--5-5-5-5-5-5-0-5-5-5-5-5-5-------|


" Goodbye my friend "
E --0-0-0-0-0-0-0-0-0-0-0-0-0-0-0-0-0-0-0-0-0-0-0-0-0-0-0-0-0-0-0-0---|
b --3-2-3--2-3-2-3--2-3-2-3-2-3--2-3-2-3-2-3--2-3-2-3-2-3--2-3-2-3-2--|
G --------------------------------------------------------------------|
D --------------------------------------------------------------------|
A --------------------------------------------------------------------|
D --------------------------------------------------------------------|

Outro
E -----------------------------------------------------------------------------|
b -----------------------------------------------------------------------------|
G -----------------------------------------------------------------------------|
D --5--5--5--5---0-0-0---5--5--5--5-5---X-X-X-X--2--2--2--2---2_4_5~------12~--|
A --5--5--5--5---0-0-0---5--5--5--5-5---X-X-X-X--2--2--2--2---2_4_5~------12~--|
D --5--5--5--5---0-0-0---5--5--5--5-5---X-X-X-X--2--2--2--2---2_4_5~------12~--|

E --------------------------------------------------------|
b --------------------------------------------------------|
G --------------------------------------------------------|
D --------------------9~----11~----7~----------------12~--|
A --------------------9~----11~----7~----------------12~--|
D --------------------9~----11~----7~----------------12~--|


C'est fait a l'oreille .. je suis sur a 80% ...
Pour les accord ca c'est sur , mais la melodie ...
c'est plus dur
Si vous avez des questions ou tout autre
            
Submit corrections

comments powered by Disqus
↑ Back to top | Uncommonmenfrommars Tabs for Goodbye My Friend. Lyrics for acoustic guitar and electric guitar. 1 Tablatures and chords are parodies/interpretations of the original songs. You may use it for private study, scholarship, research or language learning purposes only