» » »

Uncommonmenfrommars, Dark Sunday Tabs (ver.1)

Artists:  A B C D E F G H I J K L M N O P Q R S T U V W X Y Z # 

Dark Sunday Tabs (ver.1)

Uncommonmenfrommars Tabs
 Rating:
4/5 (4 votes)
Dark Sunday lessons Tabs too difficult? Try these video lessons and learn fast
                Uncommonmenfrommars
Album : Noise Pollution


EADGBE

Intro
-----------------|
-----------------|
-9-------9-------|
-9---7---9---7---|
-7---7---7---7---|
-----5-------5---|


Couplet 1
-----------------------------------------|
-----------------------------------------|
-9-------9-------6-----------6-----------|
-9---7---9---7---6---9---7---6---9---7---|
-7---7---7---7---4---9---7---4---9---7---|
-----5-------5-------7---5-------7---5---|

-----------------------------------------|
-----------------------------------------|
-9-------9-------6-----------6-----------|
-9---7---9---7---6---9---7---6---9---7---|
-7---7---7---7---4---9---7---4---9---7---|
-----5-------5-------7---5-------7---5---|


Pre-refrain
--------------------------------------------------|
--------------------------------------------------|
-9-----------9-----------6-----------6------------|
-9---9---7---9---9---7---6---9---7---6---9----7---|
-7---9---7---7---9---7---4---9---7---4---9----7---|
-----7---5-------7---5-------7---5-------7----5---|


Refrain
---------------------------------------------------------|
---------------------------------------------------------|
-9-------9-------6---9---9-------6---9---9-----------9---|
-9---7---9---7---6---9---9---7---6---9---9---7---9---9---|
-7---7---7---7---4---6---7---7---4---6---7---7---9---7---|
-----5-------5---------------5---------------5---7-------|


Couplet 2
-----------------------------------------|
-----------------------------------------|
-9-------9-------6-----------6-----------|
-9---7---9---7---6---9---7---6---9---7---|
-7---7---7---7---4---9---7---4---9---7---|
-----5-------5-------7---5-------7---5---|

-----------------------------------------|
-----------------------------------------|
-9-------9-------6-----------6-----------|
-9---7---9---7---6---9---7---6---9---7---|
-7---7---7---7---4---9---7---4---9---7---|
-----5-------5-------7---5-------7---5---|


Break
-----------------------------------------------------------------|
-----------------------------------------------------------------|
-----6-----------------------6-------------------6---------------|
-9---6---9---7-----------9---6---7-----------9---6---6---7---9---|
-9---4---9---7---7---7---9---4---7---7---7---9---4---6---7---9---|
-7-------7---5---4---5---7-------5---4---5---7-------4---5---7---|


Pre-refrain
--------------------------------------------------|
--------------------------------------------------|
-9-----------9-----------6-----------6------------|
-9---9---7---9---9---7---6---9---7---6---9----7---|
-7---9---7---7---9---7---4---9---7---4---9----7---|
-----7---5-------7---5-------7---5-------7----5---|


Refrain
---------------------------------------------------------|
---------------------------------------------------------|
-9-------9-------6---9---9-------6---9---9-----------9---|
-9---7---9---4---6---9---9---7---6---9---9---7---9---9---|
-7---7---7---4---4---6---7---7---4---6---7---7---9---7---|
-----5-------2---------------5---------------5---7-------|


Fin
-----------------|
-----------------|
-9-------9-------|
-9---7---9---7---|
-7---7---7---7---|
-----5-------5---|
            
Submit corrections

comments powered by Disqus
↑ Back to top | Uncommonmenfrommars Tabs for Dark Sunday. Lyrics for acoustic guitar and electric guitar. Tablatures and chords are parodies/interpretations of the original songs. You may use it for private study, scholarship, research or language learning purposes only