» » »

Uncommonmenfrommars, 78 Bass tabs (ver.1)

Artists:  A B C D E F G H I J K L M N O P Q R S T U V W X Y Z # 

78 Bass tabs (ver.1)

Uncommonmenfrommars Tabs
 Rating:
4/5 (4 votes)
78 lessons Tabs too difficult? Try these video lessons and learn fast
                uncommonmenfrommars


extrait de l'album Vote for me, piste 6

Je ne suis pas sûr de moi partout, mais comme pour tatoo, le solo vaut 
la peine qu'on joue cette chanson.
Pour tout commentaire ou précision,ou si un guitariste ou un batteur
habitant grenoble ou la région de pierrelatte a envie de faire du 

Intro
E-5>-3   x2

Verse
A------------------------------------------5>---------
E-5-3h4h5-3h4h5-3h4h5-3h4h5-3h4h5-3h4h5-3>-----5>-3---    x2

Chorus
     part a                             part b
D---------------7>-----------------|------------------
A----5>-------5>-----5>------5>----|------------------
E--3>--5>---3>-----3>--5>--3>--5>-3|-5>-3-5>-3-5>-3---

Verse

Chorus part a

Guitar for a while then D-7>

Bass Solo
G----------------------------------------------------------------
D------777777777--454-------------------------777777777--454-----
A----55----------5---54--------------555555555----------5---54---
E--33------------------5----333333333-------------------------5--

G-----------------------6--77--6---------------------------------
D--------------------777-77--77-77-----7777777777777777----------
A-----------555555555----------------55--------------------------
E--333333333-----------------------33----------------------------

Chorus

End
E--3333345--345\---
            
Submit corrections

comments powered by Disqus
↑ Back to top | Uncommonmenfrommars Bass for 78. Lyrics for acoustic guitar and electric guitar. Tablatures and chords are parodies/interpretations of the original songs. You may use it for private study, scholarship, research or language learning purposes only