>
 >
Ruins

Ruins Guitar Tabs

Unanimated - Ruins chords, tabs, tablatures, lyrics

Guitar lessons | Add/correct | Request | Top 50 tabs Artists:  A B C D E F G H I J K L M N O P Q R S T U V W X Y Z 0-9

Ruins Guitar Tabs – Unanimated

CD, Sheet music, Poster

Do you like Ruins? Share with your friends now
Tabs

BR=Bend and return
 B=Bend and hold
 H=Hammer on
 P=Pull off
 /=Slide up
 \=Slide down

   Intro 0:00             Repeat 1x  0:13                   Repeat 2x
   Gtr 1
e||7-7-7-7-6-6-6-6-7-7-7-7-8-8-5-5-||7-7-7-7-6-6-6-6-7-7-7-7-8-8-5-5-|
B||-5-5-5-5-5-5-5-5-5-5-5-5-5-5-5-5||-5-5-5-5-5-5-5-5-5-5-5-5-5-5-5-5|
G||--------------------------------||--------------------------------|
D||--------------------------------||--------------------------------|
A||--------------------------------||--------------------------------|
E||--------------------------------||--------------------------------|
   Intro 0:07 on second repeat       0:13                   Repeat 2x
   Gtr 2
e||0-0-0-0-0-0-0-0-0-0-0-0-0-0-0-0-||--------------------------------|
B||-5-5-5-5-5-5-5-5-5-5-5-5-5-5-5-5||--------------------------------|
G||--------------------------------||--------------------------------|
D||--------------------------------||--------3---------------5---2---|
A||--------------------------------||2-------1-------2-------3---0---|
E||--------------------------------||0---------------0---------------|


 0:26                   Repeat 3x

|7-7-7-7-6-6-6-6-7-7-7-7-8-8-5-5-||
|-5-5-5-5-5-5-5-5-5-5-5-5-5-5-5-5||
|--------------------------------||
|--------------------------------||
|--------------------------------||
|--------------------------------||
 0:26                   Repeat 3x

|--------------------------------||
|--------------------------------||
|--------------------------------||
|--------33333333--------55552222||
|22222222111111112222222233330000||
|00000000--------00000000--------||

   Riff 1 0:39
   Both Gtrs                               Repeat 6x
e||-------------------------------------------------||
B||-------------------------------------------------||
G||-------------------------------------------------||
D||9-9-9--------7-7-7-------9-9-9--------7-7--------||
A||7-7-7-101010-5-5-5-8-8-8-7-7-7-101010-5-5--10-5-7||
E||------8-8-8--------6-6-6-------8-8-8------7--7---||

  Solo Over Riff 1 0:51
  Gtr 1   Start on Third Repeat
e||---------------------------------------------------------------|
B||------------------------------------------17-------------------|
G||----------------------------------------16--16-16H17P16-14B-12-|
D||---------------------------------------------------------------|
A||7--9H10-9-10-12-10-12-12/14-14/15\14-12------------------------|
E||---------------------------------------------------------------|


e|-------------------------------------------------|
B|-------------------------------------------------|
G|14-14BR-12-14-14BR-12--12--12-14BR-12--12--12H14B|
D|---------------------14--14----------14--14------|
A|-------------------------------------------------|
E|-------------------------------------------------|

   Riff 2 1:14                             Repeat 2x  Riff 2A  Repeat 2x 1:26
   Both Gtrs
e||-------------------------------------------------||-----------------------------------------|
B||-------------------------------------------------||-----------------------------------------|
G||-------------------------------------------------||-----------------------------------------|
D||------------------------------------------9\7-7/9||-----------------------------------------|
A||2-2-2-5---8-888-7/10-10---2-2-2-5---8-888-7\5-5/7||2-2-2-5---8-888-7/10-10---2-2-2-5---8-888|
E||0-0-0-3-0-6-666-5/8--8----0-0-0-3-0-6-666--------||0-0-0-3-0-6-666-5/8--8----0-0-0-3-0-6-666|


   first      Second

e|-------|-----------||
B|-------|-----------||
G|-------|-----------||
D|9\7-7/9|9-7--------||
A|7\5-5/7|7-5-9-8-7-5||
E|-------|----7-6-5-3||

  Riff 3 1:40                                                  Repeat 4x
  Both Gtrs
e||---------------------------------------------------------------------||
B||---------------------------------------------------------------------||
G||-------------------9---7-----------7---------------------------------||
D||----10---10-9------------10-9H10P9---10-----10---10-9----------------||
A||7-7----7------10-8----------------------7-7----7------10-8--5---10-9-||
E||------------------------------------------------------------3---8--7-||
  Riff 3A 1:52                                                 Repeat 2x
  Gtr 1 Enter third time
e||---------------------------------------------------------------------||
B||-------------------11------------------------------------------------||
G||-----9----9-7---------12--9-7H9P7-12-9-------9----9-7----------------||
D||7-7----7------10-7----------------------7-7----7------10-7-9-10-9-5-7||
A||---------------------------------------------------------------------||
E||---------------------------------------------------------------------||

   Play Riff 1 2x At 2:03

  Riff 4 2:14 Listin for tempo      Repeat 2x  2:26                                      
  Repeat 4x
  Gtr 1
e||-------------------------------------------||------------------------------------------------------||
B||-------------------------------------------||------------------------------------------------------||
G||-------------------------------------------||------------------------------------------------------||
D||-------------------------------------------||------------------------------------------------------||
A||-------------------------------------------||----------10-9-7-9-10-9-7-----------------------------||
E||00000000000000-88888888888-5555555-10101010||0000000000----------------88888888888-5555555-10101010||
  Riff 4A 2:20                                                                           
  Repeat 3x
  Gtr 2
e||-------------------------------------------|-------------------------------------------------------||
B||-------------------------------------------|-------------------------------------------------------||
G||-------------------------------------------|-------------------------------------------------------||
D||-------------------------------------------|-------------------------------------------------------||
A||22222222222222-55555555555-7777777-10101010|-2222222222222222222222222-----------------------------||
E||-------------------------------------------|---------------------------88888888888-5555555-10101010||

  Play Riff 2  2x 2:49
  Play Riff 2A 2x 3:01 dont end with ending 2
  Play Riff 2  2x 3:12 end with ending 2 of Riff 2A
  Play Riff 3  5x 3:27 play 3A 2x

  Ending
e||--------||
B||--------||
G||--------||
D||--------||
A||10-9-7-7||
E||8--7-5-5||





Comments


Popular Unanimated tabs & chords
Ancient God Of Evil Tabs
Dying Emotions Domain Tabs
Life Demise Tabs
Lifedemise Tabs
Mireille Tabs


Song lyrics



↑ Back to top | Tablatures and chords are parodies/interpretations of the original songs. You may use it for private study, scholarship, research or language learning purposes only
© 2014 AZChords.com Contact us | Privacy policy | DMCA | Add/correct tabs | Request tabs | Top 50 tabs