>
 >
Lifedemise

Lifedemise Guitar Tabs

Unanimated - Lifedemise chords, tabs, tablatures, lyrics

Guitar lessons | Add/correct | Request | Top 50 tabs Artists:  A B C D E F G H I J K L M N O P Q R S T U V W X Y Z 0-9

Lifedemise Guitar Tabs – Unanimated

CD, Sheet music, Poster

Do you like Lifedemise? Share with your friends now
Tabs






Riff:1                                               
   Lead
   0:05                                           2x 
e||-------------------------|----------~------------|
B||----~-~-~-~-~------------|----~-~-~-3-~-~-~-~-~-~|
G||----2-3-0-3-2-~-~-~-~----|----2-3-0---5-3-2-3-2-5|
D||--~-----------3-1-1-0-5-3|--~--------------------|
A||~-5-------------------3-1|~-5--------------------|
E||3------------------------|3----------------------|
 ||Rythem                   |                     2x|
e||-------------------------|-----------------------|
B||-------------------------|-----------------------|
G||-------------------------|-----------------------|
D||----------------------5-3|----------3------------|
A||5---------3-------5---3-1|5---------1-------3----|
E||3---------1-------3------|3-----------------1----|

 Riff:2                                             
                                                    
 0:21                                           2x  
|-------------------------|----------~------------||
|----~-~---~-~------------|----~-~---5-~-~-~-~-~-~||
|----4-5-~-5-4-~----------|----4-5-~---7-5-4-5-4-7||
|--~-----7-----5-~-~-~-7-5|--~-----7--------------||
|~-7-------------8-8-7-5-3|~-7--------------------||
|5------------------------|5----------------------||
|                         |                     2x||
|-------------------------|-----------------------||
|-------------------------|-----------------------||
|-------------------------|-----------------------||
|----------------------7-5|----------5------------||
|7---------5-------7---5-3|7---------3-------5----||
|5---------3-------5------|5-----------------3----||
Riff:3
   Lead
   0:37                                                         2x
e||-------------------------------|-------------------------------||
B||----~-~-~-~-~-----~-~---~-~-~-~|----~-~-~-~-~-----~-~---~-~-~-~||
G||----2-3-0-3-2-~-~-3-2-~-0-2-3-5|----2-3-0-3-2-~-~-3-2-~-0-2-3-2||
D||--~-----------3-1-----3--------|--~-----------3-1-----3--------||
A||~-5----------------------------|~-5----------------------------||
E||3------------------------------|3------------------------------||

Play Riff:1 2x 0:53
Play riff:3 1x 1:08

Riff:4                                                           
   Lead                                                          
   1:16                                                          
e||-------------------------------|-----------------------------|
B||----~-~---~-~-----~-~-----~-~-~|----~-~---~-~-----~-~-----~-!|
G||----4-5-~-5-4-~-~-5-4-~-~-4-5-7|----4-5-~-5-4-~-~-5-4-~-~-4-5|
D||--~-----7-----5-3-----5-7------|--~-----7-----5-3-----5-7----|
A||~-7----------------------------|~-7--------------------------|
E||5------------------------------|5----------------------------|
                                                                |
e||-------------------------------------------------------------|
B||-------------------------------------------------------------|
G||-------------------------------------------------------------|
D||-------------------------------------------------------------|
A||-------------------------------------------------------------|
E||-------------------------------------------------------------|


 Riff:5                                
 Lead                                  
 1:25                              4x  
|------------------------------------||
|--~-~------~~-~------~-~-----------~||
|~-9-8-~~-~-10-9-~~-~-9-8-~`---~~-~-7||
|7-----10-8------10-7-----10-~-10-9--||
|----------------------------8-------||
|------------------------------------||
|Rythem                              ||
|------------------------------------||
|------------------------------------||
|------------------------------------||
|7--------8---------7--------3-------||
|7--------8---------7--------3-------||
|5--------6---------5--------1-------||

Riff:6
   Lead
   1:57                                                                 2x End With
e||-----------------------------------------------------------------------||-----||
B||-----------------------------------------------------------------------||-----||
G||-----------------------------------------------------------------------||-----||
D||2-222-----3-2h3p2---2-2-2-4/5---------2-222-----3-2h3p2---2-2-2-4/5----||--2--||
A||0-000-5-3---------3-0-0-0-2/3---0-3-2-0-000-5-3---------3-0-0-0-2/3-3-5||--0--||
E||------3-1---------------------1-------------3-1---------------------1-3||-----||

Play Riff:2 1x 2:13
Play Riff:3 2x 2:21
Play Riff:5 2x 2:37
Play riff:6 2x 2:53

Riff:7                                   
   Lead                                  
   3:09                                  
e||-------------------------------------|
B||-------------------------------------|
G||---------9------------------9--------|
D||--7-10-7---10-9-10---9-10-----10-9-10|
A||0------------------8------8----------|
E||-------------------------------------|


 Solo                                                                               
 Lead                                                                               
 3:17                                                                               
|--------------------------------------------------------------12h13p12-12-12-13--||
|13--12-13-15-13-12-13--12-13-12---12------------------------15-------------------||
|--------------------------------14--12--12-14-14-16-17-16------------------------||
|--------------------------------------14------------------17---------------------||
|---------------------------------------------------------------------------------||
|---------------------------------------------------------------------------------||

                          3:31                                         
e||15-17-20B22-20b22-20b22|-------------------------------------------|
B||-----------------------|5---5---5---5-6---6---6---6---5---5---5---5|
G||-----------------------|--5---5---5-----5---5---5---5---5---5---5--|
D||-----------------------|-------------------------------------------|
A||-----------------------|-------------------------------------------|
E||-----------------------|-------------------------------------------|


  End with     1st time    2nd time  
e|---------------------|-----------||
B|---------------------|8---6---5--||
G|7B8R7P5-7-5-7B8R7P5--|--5---5---5||
D|--------------------7|-----------||
A|---------------------|-----------||
E|---------------------|-----------||

Play Riff:6 2x 3:45



There It is 100% accurate tab for Life Demise By the Amazing band Unanimated





Comments


Popular Unanimated tabs & chords
Ancient God Of Evil Tabs
Dying Emotions Domain Tabs
Life Demise Tabs
Mireille Tabs
Ruins Tabs


Song lyrics



↑ Back to top | Tablatures and chords are parodies/interpretations of the original songs. You may use it for private study, scholarship, research or language learning purposes only
© 2014 AZChords.com Contact us | Privacy policy | DMCA | Add/correct tabs | Request tabs | Top 50 tabs