» » »

Umphreys Mcgee, Dim Sun Tabs (ver.1)

Artists:  A B C D E F G H I J K L M N O P Q R S T U V W X Y Z # 

Dim Sun Tabs (ver.1)

Umphreys Mcgee Tabs
 Rating:
4.2/5 (5 votes)
Dim Sun lessons Tabs too difficult? Try these video lessons and learn fast
                -------------------------------------------------------------------------------
			     DIM SUN - Umphrey's Mcgee
-------------------------------------------------------------------------------
Umphrey's Mcgee - Death By Stereo - Dim Sun

*This is my first tab, if you have any corrections, just leave them in the comments.
Also, listen to the song to figure out the timing/strumming.
Tuning: Standard
     							
e|---------0-----2----3----5/7------7----------------------------------------|
B|---------0-----3----5----7/8------7----------------------------------------|
G|----------------------------------7----------------------------------------|
D|----------------------------------9----------------------------------------|  2X
A|----------------------------------9----------------------------------------|
E|-0-------------------------------/7----------------------------------------|

e|-----5------------0----------------0----------3---------------2-----3------|
B|-----5------------0----------------1----------3---------------3-----3------|
G|-----5------------0----------------0----------0---------------2-----2------|
D|-----7------------2----------------2----------0-----------0---0-----0------|
A|-----7------------2----0---2---3---3---3--2---2---0---2--------------------|
E|-5---5---5----3---0---------------------------3----------------------------|

e|---------0-----2----3----5/7------7----------------------------------------|
B|---------0-----3----5----7/8------7----------------------------------------|
G|----------------------------------7----------------------------------------|
D|----------------------------------9----------------------------------------|  2X
A|----------------------------------9----------------------------------------|
E|-0-------------------------------/7----------------------------------------|
	 
e|-----5------------0----------------0----------3---------------2-----3------|
B|-----5------------0----------------1----------3---------------3-----3------|
G|-----5------------0----------------0----------0---------------2-----2------|
D|-----7------------2----------------2----------0-----------0---0-----0------|
A|-----7------------2----0---2---3---3---3--2---2---0---2--------------------|
E|-5---5---5----3---0---------------------------3----------------------------|
							
e|---------0-----2----3----5/7------7----------------------------------------|
B|---------0-----3----5----7/8------7----------------------------------------|
G|----------------------------------7----------------------------------------|
D|----------------------------------9----------------------------------------| 
A|----------------------------------9----------------------------------------|
E|-0-------------------------------/7----------------------------------------|
							
e|---------0-----2----3----5/7------7------7----6----------------------------|
B|---------0-----3----5----7/8------7------7----6----------------------------|
G|----------------------------------7------7----6----------------------------|
D|----------------------------------9------9----8----------------------------|  
A|----------------------------------9------9----8----------------------------|
E|-0-------------------------------/7------7----6----------------------------|
	
e|-----5------------0----------------3----------3-----------3----------------|
B|-----5------------0----------------1----------3-----------3----------------|
G|-----5------------0----------------0----------0-----------2----------------|
D|-----7------------2----------------2----------0-----------0----------------|
A|-----7------------2----0---2---3---3--2h3p2---2---0---2--------------------|
E|-5---5---5----3---0---------------------------3----------------------------|




************************************

| /   slide up
| \   slide down
| h   hammer-on
| p   pull-off
| ~   vibrato
| +   harmonic
| x   Mute note
| b   Bend
| pb  Pre-bend
| br  Bend release
| pbr Pre-bend release
| brb Bend release bend

************************************
            
Submit corrections

comments powered by Disqus
↑ Back to top | Umphreys Mcgee Tabs for Dim Sun. Lyrics for acoustic guitar and electric guitar. Tablatures and chords are parodies/interpretations of the original songs. You may use it for private study, scholarship, research or language learning purposes only