» » »

Umphreys Mcgee, Atmosfarag Tabs (ver.1)

Artists:  A B C D E F G H I J K L M N O P Q R S T U V W X Y Z # 

Atmosfarag Tabs (ver.1)

Umphreys Mcgee Tabs
 Rating:
4/5 (4 votes)
Atmosfarag lessons Tabs too difficult? Try these video lessons and learn fast
1
                Main Riff

--------------------------------|
--------------------------------|
-9-----6------------------------|
---------------7----------------|
-7-----4------------------------|
---------------5----------------|

played over these chords (keep playing the octaves on the 5th of each chord)

 A > F#m > D
 A > F#m > D
 A > F#m > E
 A > F#m > G

The G sounds pretty good like this

-----
--3--
--0--
--0--
--X--
--3--

     Fm     C#   Fm   Bbm                   Fm     C#   Fm   Bbm
--------------------------------------------------------------------------------|
--------------------------------------------------------------------------------|
-----10----------10--------------------------10----------10---------------------|
-/10--------11--------8-----------------/100--------11--------8-----------------|
--------------------------------------------------------------------------------|
--------------------------------------------------------------------------------|

     Fm     C#   Fm   C#   Fm   Bbm         Fm     C#   Fm   Bbm
--------------------------------------------------------------------------------|
--------------------------------------------------------------------------------|
-----10----------10--------10----------------10----------10---------------------|
-/10--------11--------11--------8-------/100--------11--------8-----------------|
--------------------------------------------------------------------------------|
--------------------------------------------------------------------------------|

Do all that twice, then repeat this for a bit...

 C#m/G#            G#
-------------------------------------|
-----5---5---5---5-------------------|
-----6---6---6---6-5-5---------------|
-----6---6---6---6-6-6-----------4-6-|
-------------------6-6-------4-6-----|
-4---4---4---4---4-4-4---------------|


That's about it, go back and do the main riff again and you're done.


1
            
Submit corrections

comments powered by Disqus
↑ Back to top | Umphreys Mcgee Tabs for Atmosfarag. Lyrics for acoustic guitar and electric guitar. 1 Tablatures and chords are parodies/interpretations of the original songs. You may use it for private study, scholarship, research or language learning purposes only