>
 >
Andy's Last Beer

Andy's Last Beer Guitar Tabs

Umphreys Mcgee - Andy's Last Beer chords, tabs, tablatures, lyrics

Guitar lessons | Add/correct | Request | Top 50 tabs Artists:  A B C D E F G H I J K L M N O P Q R S T U V W X Y Z 0-9

Andy's Last Beer Guitar Tabs – Umphreys Mcgee

CD, Sheet music, Poster

Do you like Andy's Last Beer? Share with your friends now
Tabs
intro 1: x4
Play this riff with this timing, only play the riff every other time thru

   1   2   3   4   1   2   3   4   1   2   3   4   1   2   3
E|-------------------------------------------------------------|
B|-------------------------------------------------------------|
G|------------------------------------------------------------*|
D|------------------------------------------------------------*|
A|-6-----4-----4-6-7---7---------------------------------------|
E|---------5-6-------------0~~~~~~~----------------------------|

intro 2: x 8
Timing is same but now play the riff twice each time thru

   1   2   3   4   1   2   3   4   1   2   3   4   1   2   3
E|-------------------------------------------------------------|
B|-------------------------------------------------------------|
G|------------------------------------------------------------*|
D|------------------------------------------------------------*|
A|-6-----4-----4-6-7---7-----------6-----4-----4-6-7-----------|
E|---------5-6-------------0~~~~~~~--------5-6-------0---------|

verse x 8 (d=downstroke/u=upstroke
     d     d d  d     d d u u     d u  d u
|----7----------------7-7-7-7-----------------------|
|----7-----9-9--7-----7-7-7-7-----9-9--7-7----------|
|----8-----9-9--7-----8-8-8-8-----9-9--7-7----------|
|----------9-9--7-----------------9-9--7-7----------|
|---------------------------------------------------|
|---------------------------------------------------|
Lyrics:
Whether to mind, partly blind changes wrong or right, do you qualify?
Not to dispraise what it is that I cannot change so am I to blame?
What's the excuse, could it make yours
the one to try are you justified?
Don't even ask the argument is already stained should it be exchanged?
Gimme a reason, what's in your brain?
after 1st verse: x 4
E----------------------------------------------------------------------|
B----------------------------------------------------------------------|
G----------------------------------------------------------------------|
D--------------------4-----------------4-------------------------------|
A--6--4-----4-6-7--7----6--4-----4-6-7---------------------------------|
E-------5-6------------------5-6---------------------------------------|
after 2nd verse: x 3
E----------------------------------------------------------------------|
B----------------------------------------------------------------------|
G----------------------------------------------------------------------|
D--------------------------------------4-------------------------------|
A--6--4-----4-6-7--7----6--4-----4-6-7---7-6-4-7-6-4-------------------|
E-------5-6----------0-------5-6---------------------------------------|
(after the 3rd time they drop a half step to . . .
  x2
E----------------------------------------------------------------------|
B----------------------------------------------------------------------|
G----------------------------------------------------------------------|
D---------------------------------------3------------------------------|
A--5--3-----3-5-6--6-----5--3-----3-5-6---6-5-3-6-5-3------------------|
E-------4-5----------11\------4-5--------------------------------------|
  x2
    d     d d  d     d d u u     d u  d u
|---6----------------6-6-6-6-----------------------|
|---6-----8-8--6-----6-6-6-6-----8-8--6-6----------|
|---7-----8-8--6-----7-7-7-7-----8-8--6-6----------|
|---------8-8--6-----------------8-8--6-6----------|
|--------------------------------------------------|
|--------------------------------------------------|
transition riff-->(bass & drums)
|------------------------------------------|
|--8p6----------------3p1------------------|
|------8p6-------6--------3p1--------------|
|----------8-6h8--------------3------------|
|-------------------------------1----------|
|------------------------------------------|
bass & drums: x6
bass: (start's right on the last note of previous section)
Timing is similar to the intro, even 4/4 until the end of the riff, skip one beat
|--------------------------------------------------------------------------------|
|----------------------------------------------1-----------------3-2-1--1-1h2p1-*|
|----------------6-4-7-6-4---2-3---------1-3p1---3-1-3---3-0-1-2----------------*|
|-6--3h4h5h6-6p4-----------6-----0h1h2h3---------------1-------------------------|
guitar: x6
|---------------------------------------------------------------------------------------|
|----------------8-6-9-8-6------------------------8--------------------10-9-8--8-8h9p8--|
|-8--5h6h7h8-8p6-----------8-9-10----------8-10p8---10-8-10---10-7-8-9-----------------*|
|---------------------------------7h8h9h10------------------8--------------------------*|
|---------------------------------------------------------------------------------------|
|---------------------------------------------------------------------------------------|
(after the 6th time through half way through the 7th they hit two notes higher then pause,
 the Joel comes in and solos for 2x's, then they do the same thing but Bayliss comes in and
 jams til the end.)
song order:
intro 1 x 4
intro 2 x 8
verse
similar intro riff x 4
verse
intro riff with differnt ending x 3
half step drop x 2
half step verse chords x 2
transition riff
bass & drums x6
synchronized guitar riff x 6
joel solo x2
bayliss solo
half step verse chords x2
transition riff ending
I stress listening to a recording a lot for better accuracy and timing.

************************************************************************************

Corrected intro by Jay:

E-------------------------------------------------------------|
B-------------------------------------------------------------|
G-------------------------------------------------------------|
D-------------------------------------------------------------|
A--6-4------4-6--7-7~~~~~6-4------4-6--7~~~~~-----------------|
E-------5-6----------0--------5-6-------0---------------------|

verse: It's this pattern throughout the tune, the B is played with 2 downstrokes and 2 upstrokes,
D=down stroke U=upstroke.
     dduu
|----7-7-7-7-----------------7-7-7-7-------------------|
|----7-7-7-7------9-9--7-----7-7-7-7-----9-9--7-7------|
|----8-8-8-8------9-9--7-----8-8-8-8-----9-9--7-7------|
|-----------------9-9--7-----------------9-9--7-7------|
|------------------------------------------------------|
|------------------------------------------------------|

Lyrics:

Whether to mind, partly blind changes wrong or right, do you qualify?
Not to dispraise what it is that I cannot change so am I to blame?
What's the excuse, could it make yours
the one to try are you justified?
Don't even ask the argument is already stained should it be exchanged?

Gimme a reason, what's in your brain?


This is one of my fav. Umph songs so I tried to tab out a good bit of it. im sure its 
not 100%
accurate, but hey, I tried. I also decided to just give u some scales instead of 
the solo.
Thanks. JBAUT

-------------------------------------------------------------------------------|
-------------------------------------------------------------------------------|
-------------------------------------------------------------------------------|
-------------------------------------------------rpt---------------------------|
--6--4------4--6-7-7-------6--4------4--66-77\---------------------------------|
-------6-7-----------0v---------6-7--------------------------------------------|
delve into this riff after an intro full of classic spacy UM effects

--7v---------------7x-x--------------------------------------------------------|
--7v---9-9--7v-----7x-x--9-9--7-7----------------------------------------------|
--8v---9-9--7v-----8x-x--9-9--7-7--rpt-----------------------------------------|
--9v---9-9--7v---9-------9-9--7-7----------------------------------------------|
--9v---7-7--5v---9-------7-7--5-5----------------------------------------------|
--7v-------------7-------------------------------------------------------------|
verse

-------------------------------------------------------------------------------|
-------------------------------------------------------------------------------|
-------------------------------------------------------------------------------|
--------------------------------------------4---------------rpt----------------|
--6--4------4--6-7-7-------6--4------4-6--7---7-6--6-7-6-4---------------------|
-------6-7-----------0v---------6-7--------------------------------------------|
go into this small change in the riff after the verse sec. is over

-------------------------------------------------------------------------------|
-------------------------------------------------------------------------------|
-------------------------------------------------------------------------------|
--------------------------------------------3---------------rpt----------------|
--5--3------3--5-6-6-------5--3------3-5--6---6-5--5-6-5-3---------------------|
-------5-6-----------11/--------5-6--------------------------------------------|
you'll notice that they switch the key from B to Bb at this point

-------------------------------------------------------------------------------|
---8-6-----------------3-------------------------------------------------------|
-------7/5-3---3-5v------5-3---------------------------------------------------|
-------------5---------------5/3-----------------------------------------------|
---------------------------------1---------------------------------------------|
-------------------------------------------------------------------------------|
^play this riff after playing the verse chords 1/2 step lower in Bb

-------------------------------------------------------------------------------|
-------------------------------------------------------------------------------|
----------------8-----8p6------------------------------------------------------|
--8-5-6-7-8-8-6---8-6-----7-8-9-10v------------8------10-----------------8-10--|
-------------------------------------7-8--9-10---10-8----10-8-10----10p8-------|
------------------------------------------------------------------8------------|
^this is the jam that begins with bass and then is synchronized with guitar

-------------------------------------------------------------------------------|
-------------------------------------------------------------------------------|
-10-9-8v-8h9p8-----------------------------------------------------------------|
---------------8---------------------------------------------------------------|
-------------------------------------------------------------------------------|
-------------------------------------------------------------------------------|
^jam cont'd

---------------------------4-6-7-6-4-------------------------------------------|
---------------------4-5-7-----------7-5--4------------------------------------|
-----------------4-6------------------------6-4--------------------------------|
-----------4-6-8--------------------------------8-6-4--------------------------|
-----4-6-7--------------------------------------------7-6-4--------------------|
---7--------------------------------------------------------7-6-4-6-7----------|
^the main riffs start out in a B major scale

-------------------------------------8-100-11----------------------------------|
-----------------------------8-10-11-------------------------------------------|
----------------------7-8-10---------------------------------------------------|
---------------7-8-10----------------------------------------------------------|
--------6-8-10-----------------------------------------------------------------|
-6-8-10------------------------------------------------------------------------|
the jams or played in Bb Major and I like to solo around this Bb Maj. scale

----------------------3-6------------------------------------------------------|
------------------3-6----------------------------------------------------------|
--------------3-5--------------------------------------------------------------|
----------3-5------------------------------------------------------------------|
------3-5----------------------------------------------------------------------|
--3-6--------------------------------------------------------------------------|
^G minor pentatonic is also a useful scale to solo in





Comments


Popular Umphreys Mcgee tabs & chords
Walletsworth Bass Tabs
Walletsworth 1 Bass Tabs
1348 Tabs
Anchor Drops Tabs
Divisions Tabs
Intentions Clear Tabs
Pequod Tabs
Ringo Tabs
Walletsworth 1 Tabs
Words Tabs


Song lyrics



↑ Back to top | Tablatures and chords are parodies/interpretations of the original songs. You may use it for private study, scholarship, research or language learning purposes only
© 2014 AZChords.com Contact us | Privacy policy | DMCA | Add/correct tabs | Request tabs | Top 50 tabs