» » »

Umphreys Mcgee, 1348 Tabs (ver.1)

Artists:  A B C D E F G H I J K L M N O P Q R S T U V W X Y Z # 

1348 Tabs (ver.1)

Umphreys Mcgee Tabs
 Rating:
4.3/5 (6 votes)
1348 lessons Tabs too difficult? Try these video lessons and learn fast
                
                   --------1348: Umphrey's McGee---------





e|-------------------------------------------------12-----------------------|
B|---11-14-----11-14-----11-14-----11-14-----11-14-----14--12---------------|
G|12--------12--------12--------12--------12-------------------13-----------|
D|-----------------------------------------------------------------14-------|
A|--------------------------------------------------------------------------|
E|--------------------------------------------------------------------------|

e|-------------------------------------------------12---12------------------|
B|---11-14-----11-14-----11-14-----11-14-----11-14---------14--12--11-------|
G|12--------12--------12--------12--------12--------------------------13----|
D|--------------------------------------------------------------------------|
A|--------------------------------------------------------------------------|
E|--------------------------------------------------------------------------|

e|-----------------------------------------------------------------------------|
B|-12--11----------------------------------------------------------------------|
G|---------13------------------------------------------------------------------|
D|-------------14------(x2)----------------------------------------------------|
A|-----------------------------------------------------------------------------|
E|-----------------------------------------------------------------------------|

If you can get a good sound, palm mute the first 2 sets then open up for the last 2

e|------------------------------------------|
B|-14--12---------------14-12---------------|
G|--------13--11--------------13-11---------|
D|--------------13-11---------------13-11---|
A|------------------------------------------|
E|------------------------------------------|   x4


e|-----|----------------------------------------------------------------|
B|-----|----------------------------------------------------------------|
G|-----|----------------------------------------------------------------|
D|-----|----------------------------------------------------------------|
A|-----|------------4----------------2-------------------------4--------|
E|--2--|--h4-p2-h4-------2-h4-p2-h4------1-2--4p2----h4-p2-h4-----------|

e|----------------------------|
B|----------------------------|
G|----------------------------|
D|----------------------------|
A|-------------2--------------|
E|--2-h4-p2-h4------1---2-2---|   x 3

e|-----------------------------------------------------------------------|
B|-----------------------------------------------------------------------|
G|-----------------------------------------------------------------------|
D|-----------------------------------------------------------------------|
A|--------------4----------------2-------------------------4-------------|
E|----h4-p2-h 4-------2-h4-p2-h4------1-2--4p2----h4-p2-h4---------------|

e|----------------------------|
B|----------------------------|
G|----------------------------|
D|----------------------------|
A|-------------2--------------|
E|--2-h4-p2-h4--------2-------|

Verse 1                                                "We've been blind"

e|------------------------------------------------------------------------------|
B|------------------------------------------------------------------------------|
G|------------------------------------------------------------------------------|
D|--3----4----6-----------------------------------------------------------------|
A|--3----4----6-----------------------------------------------------------------|
E|--1----2----4-(let ring)------------------------------------------------------|


the first half of the verse has this playing gently

e|-----------------------|
B|-----------------------|
G|---5----3----6----3----|
D|-----------------------|
A|-----------------------|
E|-----------------------|     x 4


then it gets funky
(mess around with this until you get it)

e|--------------------------------|
B|----9-----6-7-----4-6-----2-4---|
G|--------------------------------|
D|--------------------------------|
A|--------------------------------|
E|--------------------------------|     x 3


e|-----------------------------------|
B|----9-----6-7---------6---------5--|
G|-----------------6-8-------5-6-----|
D|-----------------------------------|
A|-----------------------------------|
E|-----------------------------------|


'''''''''''''''''''''''''''''''''''''''''''''''''''


e|-----|-------------------------------------------------------------------|
B|-----|-------------------------------------------------------------------|
G|-----|-------------------------------------------------------------------|
D|-----|-------------------------------------------------------------------|
A|-----|------------4----------------2-------------------------4-----------|
E|--2--|--h4-p2-h 4-------2-h4-p2-h4------1-2--4p2----h4-p2-h4-------------|

e|----------------------------|
B|----------------------------|
G|----------------------------|
D|----------------------------|
A|-------------2--------------|
E|--2-h4-p2-h4------1---2-2---|   x 3

e|--------------------------------------------------------------------------|
B|--------------------------------------------------------------------------|
G|--------------------------------------------------------------------------|
D|--------------------------------------------------------------------------|
A|--------------4----------------2-------------------------4----------------|
E|----h4-p2-h 4-------2-h4-p2-h4------1-2--4p2----h4-p2-h4------------------|

e|----------------------------|
B|----------------------------|
G|----------------------------|
D|----------------------------|
A|-------------2--------------|
E|--2-h4-p2-h4--------2-------|

e|------------------------------------------------------------------------------|
B|------------------------------------------------------------------------------|
G|------------------------------------------------------------------------------|
D|--3----4----6-----------------------------------------------------------------|
A|--3----4----6-----------------------------------------------------------------|
E|--1----2----4-(let ring)------------------------------------------------------|


VERSE 2

the first half of the verse has this playing gently

e|-----------------------|
B|-----------------------|
G|---5----3----6----3----|
D|-----------------------|
A|-----------------------|
E|-----------------------|     x 4


then it gets funky
(mess around with this until you get it)

e|--------------------------------|
B|----9-----6-7-----4-6-----2-4---|
G|--------------------------------|
D|--------------------------------|
A|--------------------------------|
E|--------------------------------|     x 3


e|-----------------------------------|
B|----9-----6-7---------6---------5--|
G|-----------------6-8-------5-6-----|
D|-----------------------------------|
A|-----------------------------------|
E|-----------------------------------|


This is played for the next phrase of the song  \/

e|----------------|
B|----------------|
G|----------------|
D|---5-----2------|
A|---5-----2------|
E|---3-----0------|


e|--------------------------------------------------------------------------|
B|--14----15b17----11----14--8----11--5-------------------------------------|
G|--------------------------------------------------------------------------|
D|--------------------------------------------------------------------------|
A|--------------------------------------------------------------------------|
E|--------------------------------------------------------------------------|

Back to intro... ill do ending solo tomorrow
            
Submit corrections

comments powered by Disqus
↑ Back to top | Umphreys Mcgee Tabs for 1348. Lyrics for acoustic guitar and electric guitar. Tablatures and chords are parodies/interpretations of the original songs. You may use it for private study, scholarship, research or language learning purposes only