» » »

Ulver, Wolf And Man Tabs (ver.1)

Artists:  A B C D E F G H I J K L M N O P Q R S T U V W X Y Z # 

Wolf And Man Tabs (ver.1)

Ulver Tabs
 Rating:
3.6/5 (5 votes)
Wolf And Man lessons Tabs too difficult? Try these video lessons and learn fast
1
                
Band   Ulver

Copyright (c)  Century Media
Version 1.0 - 9/11/2007



.  - palm mute           /  - slide up to
\  - slide down to       ~  - vibrato
h  - hammer on           b  - Bend
p  - pull off            Suffixes for bend
t  - tap                 f  - full bend    h - half bend
ph - pinched harmonic    q  - quarter bend t - tap bend
*  - see comment         ^  - Hold bend    r release bend
x  - Stuccatto           ~  - vibrato bend
,  - slight palm mute    () - ghost note, sustained note
"  - tremolo note        <> - Trill

Tuning E A D G B E

Note:
This is the weird intro part i couldn't tab,sorry.

Riff 1
|-----------------------------------------------------------|
|-----------------------------------------------------------|
|-----------------------------------------------------------|
|-------------2---4---2----1--------------------------------|  gtr 1
|---3---2-------------------------3----2--------------------|
|-----------------------------------------------------------|

|-----------------------------------------------------------|
|-----------------------------------------------------------|
|-----------------------------------------------------------|
|----5-------5-------6-------3------------------------------|  gtr 2
|----5-------5-------6-------3------------------------------|
|----3-------3-------4-------1------------------------------|

Riff 2                                  Riff 2b
|---------------------------------------|-------------------------------------------------------|
|---8"-----9"----8"------9"-------------|----8"----6"---4"----4"----1"---3"--4"-----------------|
|---5"-----5"----5"------5"-------------|----5"----5"---3"----5"----2"---2"--2"-----------------|
|---------------------------------------|-------------------------------------------------------|
|---------------------------------------|-------------------------------------------------------|
|---------------------------------------|-------------------------------------------------------|

Riff 3
|--------------------------------------------------------------------|
|---7"-----5"----3"-----1"-------------------------------------------|
|---4"-----4"----4"-----2"----3"----4"---5"----4"--------------------|
|-----------------------------4"----5"---6"----5"--------------------|
|--------------------------------------------------------------------|
|--------------------------------------------------------------------|

Riff 4                                                       Riff 4b
|-----------------------------------------------------------|--------------------------|
|-----------------------------------------------------------|--------------------------|
|-----------------------------------------------------------|--------------------------|
|---9"----5"---7"----4"----4"---5"--------------------------|---9-"----10"-------------|
|---7"----7"---7"----6"----5"---7"--------------------------|---7"------7"-------------|
|-----------------------------------------------------------|--------------------------|

Riff 5 - Fill
|-----------------------------------------------------------|
|--10h12--11h13---10h12---9h10------------------------------|
|-----------------------------------------------------------|
|-----------------------------------------------------------| gtr 1
|-----------------------------------------------------------|
|-----------------------------------------------------------|

|-----------------------------------------------------------|
|-----------------------------------------------------------|
|-----------------------------------------------------------|
|--9"----7"----5"-----5"-----2"----4"-----5"----------------| gtr 2
|--6"----6"----4"-----6"-----3"----3"-----3"----------------|
|-----------------------------------------------------------|

Riff 6 - Outro
|-----------------------------------------------------------|
|--8"-----6"-----4"-----------------------------------------|
|--7"-----7"-----6"---------7"------------------------------|
|---------------------------5"------------------------------|
|-----------------------------------------------------------|
|-----------------------------------------------------------|

End.
            
Submit corrections

comments powered by Disqus
↑ Back to top | Ulver Tabs for Wolf And Man. Lyrics for acoustic guitar and electric guitar. 1 Tablatures and chords are parodies/interpretations of the original songs. You may use it for private study, scholarship, research or language learning purposes only