>
 >
Nowhere / Catastrophe

Nowhere / Catastrophe Guitar Tabs

Ulver - Nowhere / Catastrophe chords, tabs, tablatures, lyrics

Guitar lessons | Add/correct | Request | Top 50 tabs Artists:  A B C D E F G H I J K L M N O P Q R S T U V W X Y Z 0-9

Nowhere / Catastrophe Guitar Tabs – Ulver

CD, Sheet music, Poster

Do you like Nowhere / Catastrophe? Share with your friends now
Tabs
                      ULVER - NOWHERE/CATASTROPHE
                    From the Album PERDITION CITY
                    Copyright 2000 JESTER RECORDS
                      Version 1.0 - sept.2001
   

Check Out DEATH WARP With More Transcriptions On It:

Check Out 's Web Page, With More Transcriptions On It:
               /index.html 


To Join The Official 's Death Tab Mailing List Contact Rich at
 

.  - palm mute                  /  - slide up to
\  - slide down to              ~  - vibrato
h  - hammer on                  b  - bend
p  - pull off                        Suffixes for bend
ph - pinch harmonic                   
*  - see comment                      
X  - percussion mute             
@  - slight palm mute           () - ghost note, sustained note
"  - 4 strokes on one note
   
Intro:

 E                              C5
|-----------------------------------------|
|-----------------------------------------|
|-----------------------------------------|
|2~------------------------------5~-------|
|2~------------------------------3~-------|
|0----------------------------------------|

 E                               C5
|---------------------------------------------------------------------|  
|---------------------------------------------------------------------|
|---------------------------------------------------------------------|
|2~------------------------------5~-----------------------------------|
|2~------------------------------3~-----------------------------------|
|0--------------------------------------------------------------------|
|                                                                     |
|------------------------------------------------------------15-18----|
|16h17h16h17h16h17h16h17----------16h17h16h17h16h17h16h17-17-------17-|
|---------------------------------------------------------------------|
|---------------------------------------------------------------------|
|---------------------------------------------------------------------|
|---------------------------------------------------------------------|

 
     E                 C*(with fill 1 )
You fly or rather float drift throug an
E                 C*(with fill 2)
enormous dark room  a room of noises
E                            C*(with fill 3 )
endless shimmering glissandi, cracking pizzicato
E                              C*(with fill 4 )
coal-black turbulence-holes of bassdrones
              E                 C*(with fill 5 )
but otherwise empty, no planets, no meteorites
E                                  C
if anything perhaps fine dust clouds of exploded
      A*(with fill 6)B       G 
music   You float there somewhere between pleasure
        A#
and fear



Chorus:
                    D         G     
                      Nowhere / catastrophe



E         C*(with fill 7)                   E*(with fill 8)
    In a piece of time you cannot determine 
                            C*fill 9 E*(with fill 10)
you are everwhere but in the present and you
           C*(with fill 12)    E
disappear, further and further into these incalculable
               C                     A(with fill 6)
rooms and your personality fades away your features
  B            G            A#
evaporate your body decomposes.


                              N.C
                    And your last thought is
                 that you have become a noise
                 a thing nameless noise among
                 all these others howling in
                     the empty dark room   

          |-----------------------------------|
          |----7------------------------------|(Bass solo)
          |-7------7----5----2----------------|
          |----------------------5\-----------|


Chorus:
                    D         G     
                      Nowhere / catastrophe

                       |--------------|
                       |---8/10-10~---|
                       |--------------|
                       |--------------|
                       |--------------|
                       |--------------|(x3) (x3)(x3)

Gtr.solo (with piano solo)
|---------------------------------------------------------------------|
|---------------------------------------------------------------------|
|11*------------------11--------11*-------11*-------11*-------11*-----|
|----------12--14--12----14--12----14--12----14--12----14--12----14---|
|---------------------------------------------------------------------|
|---------------------------------------------------------------------|
 < Volume 
*A.h
|--------------------------------12----------------12~~\---|
|--------------------/12\--/15\--15(17)---------12---------|
|---11*---------/11\------------------------14b(16)--------|
|12----14-14~~---------------------------------------------|
|----------------------------------------------------------|
|----------------------------------------------------------|
                                

                                  End.
___________________________________________________________________
____________________________FILLS__________________________________
*fill 1
|-----------------------| 
|16h17h16h17h16h17------|
|-----------------------|
|-----------------------|
|-----------------------|
|-----------------------|

              *fill 2
              |------------------------15-18------------------------|
              |16h17h16h17h16h17h16-17-------16h17h16h17h17h16h17---|
              |-----------------------------------------------------|
              |-----------------------------------------------------|
              |-----------------------------------------------------|
              |-----------------------------------------------------|

*fill 3
|------------------------15-18------|
|16h17h16h17h16h17h16-17------------|
|-----------------------------------|
|-----------------------------------|
|-----------------------------------|
|-----------------------------------|

                   *fill 4
                   |------------------15-18--------------------------|
                   |16h17h16h17h16-17-------16h17h16h17h16h17h16h17--|
                   |-------------------------------------------------|
                   |-------------------------------------------------|
                   |-------------------------------------------------|
                   |-------------------------------------------------|
* fill 5 
|-----------------------|
|16h17h16h17h16h17------|
|-----------------------|
|-----------------------|
|-----------------------|
|-----------------------|

* fill 6 (Clear Gtr)
|--------0----------0-------7-----------------------------------------|
|----1------------------3-------7-------10------11--------------------|
|2------------------------------------------12------------------------|
|-------------------------------------------------------12-------12---|
|---------------------------------------------------------------------|
|---------------------------------------------------------------------|

|----------------8-----|
|----------11----------|
|----------------------|
|11--------------------|
|----13----------------|
|----------------------|

                 * fill 7
                 |--------------------------15-18----------------|
                 |16h17h16h17h16h1716h17-17-------16h17h16h17----|
                 |-----------------------------------------------|
                 |-----------------------------------------------|
                 |-----------------------------------------------|
                 |-----------------------------------------------|

* fill 8
|-------------------------------|
|16h17h16h17h16h17h16h17-17-----|
|-------------------------------|
|-------------------------------|
|-------------------------------|
|-------------------------------|


                      * fill 9
                      |--------------------------15-18----------------|
                      |16h17h16h17h16h1716h17-17-------16h17h16h17----|
                      |-----------------------------------------------|
                      |-----------------------------------------------|
                      |-----------------------------------------------|
                      |-----------------------------------------------|


* fill 10
|-------------------------------|
|16h17h16h17h16h17h16h17--------|
|-------------------------------|
|-------------------------------|
|-------------------------------|
|-------------------------------|

                     * fill 11
                     |--------------------------15-18----------------|
                     |16h17h16h17h16h1716h17-17-------16h17h16h17----|
                     |-----------------------------------------------|
                     |-----------------------------------------------|
                     |-----------------------------------------------|
                     |-----------------------------------------------|





Comments


Popular Ulver tabs & chords
Bergtatt - Ind I Fjeldkamrene Tabs
Hiertets Vee Tabs
Hiertets Vee 1 Tabs
Hymn Iv Tabs
I Troldskog Faren Vild Tabs
Sofu Or Paa Allfers Lund Tabs
Utreise Tabs
Wolf And Hatred Tabs
Wolf And Man Tabs
Wolf And Passion Tabs


Song lyrics



↑ Back to top | Tablatures and chords are parodies/interpretations of the original songs. You may use it for private study, scholarship, research or language learning purposes only
© 2014 AZChords.com Contact us | Privacy policy | DMCA | Add/correct tabs | Request tabs | Top 50 tabs