» » »

Ulver, Bergtatt - Ind I Fjeldkamrene Tabs (ver.2)

Artists:  A B C D E F G H I J K L M N O P Q R S T U V W X Y Z # 

Bergtatt - Ind I Fjeldkamrene Tabs (ver.2)

Ulver Tabs
 Rating:
4/5 (4 votes)
Bergtatt - Ind I Fjeldkamrene lessons Tabs too difficult? Try these video lessons and learn fast
1
                Capitel V: Bergtatt- Ind i fjeldkamrene
Ulver

for this tab, i sorted through tabs that i found,
picked out the good parts, threw them together,
and figured some out on my own, so not all the
credit goes to any one person. any corrections
are welcomed.

standard tuning
the bulk of this song is in 4/4

THEME 1

G1
---------------------------------|---------------------------------|
---------------------------------|---------------------------------|
-5-5-5-5-5-5-5-5-5-5-5-5-5-5-5-5-|-5-5-5-5-5-5-5-5-5-5-5-5-5-5-5-5-|
-3-3-3-3-3-3-3-3-3-3-3-3-3-3-3-3-|-3-3-3-3-3-3-3-3-3-3-3-3-3-3-3-3-|
---------------------------------|---------------------------------|
---------------------------------|---------------------------------|
|
G2
---------------------------------|---------------------------------|
---------------------------------|---------------------------------|
---------------------------------|---------------------------------|
-2-2-2-2-2-2-2-2-2-2-2-2-2-2-2-2-|-3-3-3-3-3-3-3-3-3-3-3-3-5-5-3-3-|
-3-3-3-3-3-3-3-3-3-3-3-3-3-3-3-3-|-3-3-3-3-3-3-3-3-3-3-3-3-3-3-3-3-|
---------------------------------|---------------------------------|


G1
---------------------------------|---------------------------------|
---------------------------------|---------------------------------|
-5-5-5-5-5-5-5-5-5-5-5-5-5-5-5-5-|-4-4-4-4-4-4-4-4-4-4-4-4-4-4-4-4-|
-3-3-3-3-3-3-3-3-3-3-3-3-3-3-3-3-|-2-2-2-2-2-2-2-2-2-2-2-2-2-2-2-2-|
---------------------------------|---------------------------------|
---------------------------------|---------------------------------|
|
G2
---------------------------------|---------------------------------|
---------------------------------|---------------------------------|
---------------------------------|---------------------------------|
-2-2-2-2-2-2-2-2-2-2-2-2-2-2-2-2-|-2-2-2-2-2-2-2-2-2-2-2-2-2-2-2-2-|
-3-3-3-3-3-3-3-3-3-3-3-3-3-3-3-3-|-3-3-3-3-3-3-3-3-3-3-3-3-3-3-3-3-|
---------------------------------|---------------------------------|


play theme 1 twice, then play it 6 times as a "verse"
for this verse, an acoustic plays this

THEME 2

-------------------------|-------------------------|
---0-----0-----0-----0---|---0-----0-----0-----0---|
-----5-----5-----5-----5-|-----5-----5-----5-----5-|
-2-----2-----2-----2-----|-3-----3-----3-----3-----|
-------------------------|-------------------------|
-------------------------|-------------------------|



-------------------------|-------------------------|
---0-----0-----0-----0---|---0-----0-----0-----0---|
-----5-----5-----5-----5-|-----4-----4-----4-----4-|
-2-----2-----2-----2-----|-2-----2-----2-----2-----|
-------------------------|-------------------------|
-------------------------|-------------------------|


that goes on until about 0:54, where the acoustics take
over...


theme 3 (repeats throughout)

-------------------------|-------------------------|
-------------------------|-------------------------|
-------5-----------5-----|-------5-----------5-----|
-----9---9-------9---9---|-----9---9-------9---9---|
---7-------7---7-------7-|---7-------7---7-------7-|
-5-----------5-----------|-5-----------5-----------|

-------------------------|-------------------------|
-------------------------|-------------------------|
-------3-----------3-----|-------3-----------3-----|
-----7---7-------7---7---|-----7---7-------7---7---|
---5-------5---5-------5-|---5-------5---5-------5-|
-3-----------3-----------|-3-----------3-----------|

this is played ten times total. over this:
lead

7 measure rest, then...

----------------|-5---|-(5)---(5)-----|--------|
--------6-5-8-6-|-----|-----------6-5-|-6----8-|
------7---------|-----|---------------|--------|
----7-----------|-----|---------------|--------|
----------------|-----|---------------|--------|
----------------|-----|---------------|--------|

              quick sweep-v  |------|(staccato--------|
-------|--------|----------------------|--------------|
-5-----|-(5)----|-(5)------5-8--6--5---|-6------------|
-------|--------|---------5----------7-|--------------|
-------|--------|--------7-------------|---------7h8--|
-------|--------|----------------------|--------------|
-------|--------|----------------------|--------------|

      v-sweeps-v
----------------8-|-12----|-(12)---|-(12)--|-(12)--|
------8--10---10--|-------|--------|-------|-------|
-9---9------------|-------|--------|-------|-------|
------------------|-------|--------|-------|-------|
------------------|-------|--------|-------|-------|
------------------|-------|--------|-------|-------|


-12---8---10------|--------|---------------|---------------------|
--------------10--|-(10)---|-(10)----------|---------------------|
------------------|--------|---------------|--7--9--10--7--10--9-|
------------------|--------|---------------|---------------------|
------------------|--------|---------------|---------------------|
------------------|--------|-------3--5--6-|---------------------|


-------|-------|------|------------------|--------------|------|
-(9)---|-(9)---|-8----|-(8)--------------|--------------|------|
-------|-------|------|---------5--7--9--|-10--7--9-----|-(9)--|
-------|-------|------|------------------|--------------|------|
-------|-------|------|------------------|--------------|------|
-------|-------|------|------------------|--------------|------|


-------------|-13--10--12---|-----------------------|
-11--8--10---|--------------|-8--10--11--8--10--11--|
-------------|--------------|-----------------------|
-------------|--------------|-----------------------|
-------------|--------------|-----------------------|
-------------|--------------|-----------------------|


-----------------------|---------------|----------------8-|
--8--10--11--8--10--11-|-(10)----------|------8--10---10--|
-----------------------|---------------|-9---9------------|
-----------------------|-----------7h8-|------------------|
-----------------------|---------------|------------------|
-----------------------|---------------|------------------|


-12-10-12---|-(12)---|-(12)---|-(12)---|
------------|--------|--------|--------|
------------|--------|--------|--------|
------------|--------|--------|--------|
------------|--------|--------|--------|
------------|--------|--------|--------|


now, back to the electrics
NOTE: i am not too sure what the second guitar is playing here...
either strum all of the chords with an emphasis on the ones marked
or palm mute the chords not marked... its really hard to tell

THEME 4

G1
---------------------------------|---------------------------------|
---------------------------------|---------------------------------|
-7-7-7-7-7-7-5-5-5-5-5-5-4-4-4-4-|-4-4-4-4-4-4-5-5-5-5-5-5-4-4-4-4-|
---------------------------------|---------------------------------|
---------------------------------|---------------------------------|
---------------------------------|---------------------------------|
|
G2
---------------------------------|---------------------------------|
---------------------------------|---------------------------------|
---------------------------------|---------------------------------|
---------------------------------|---------------------------------|
-7---7-7-7-7-7---7-7-7-7-7---7---|-5---5-5-5-5-5---5-5-5-5-5---5---|
-5---5-5-5-5-5---5-5-5-5-5---5---|-3---3-3-3-3-3---3-3-3-3-3---3---|
 *           *            *  *     *           *           *   *

G1
---------------------------------|---------------------------------|
---------------------------------|---------------------------------|
---------------------------------|---------------------------------|
-5-5-5-5-5-5-4-4-4-4-4-4-5-5-5-5-|-3-3-3-3-3-3-7-7-7-7-7-7-7-7-7-7-|
---------------------------------|---------------------------------|
---------------------------------|---------------------------------|
|
G2
---------------------------------|---------------------------------|
---------------------------------|---------------------------------|
---------------------------------|---------------------------------|
---------------------------------|---------------------------------|
-2---2-2-2-2-2---2-2-2-2-2---2---|-3---3-3-3-3-3---3-3-3-3-3---3---|
-0---0-0-0-0-0---0-0-0-0-0---0---|-1---1-1-1-1-1---1-1-1-1-1---1---|
 *           *           *   *     *           *           *   *

play this theme 6 times total

THEME 5

G1
---------------------------------|---------------------------------|
---------------------------------|---------------------------------|
---------------------------------|---------------------------------|
-2-2-2-2-2-2-5-5-5-5-5-5-4-4-4-4-|-2-2-2-2-2-2-5-5-5-5-5-5-4-4-4-4-|
---------------------------------|---------------------------------|
---------------------------------|---------------------------------|
|
G2
---------------------------------|---------------------------------|
---------------------------------|---------------------------------|
---------------------------------|---------------------------------|
---------------------------------|---------------------------------|
---------------------------------|---------------------------------|
-0-0-0-0-0-0-0-0-0-0-0-0-0-0-0-0-|-0-0-0-0-0-0-0-0-0-0-0-0-0-0-0-0-|


G1
---------------------------------|---------------------------------|
---------------------------------|---------------------------------|
---------------------------------|---------------------------------|
---------------------------------|---------------------------------|
-5-5-5-5-5-5-4-4-4-4-4-4-5-5-5-5-|-5-5-5-5-5-5-4-4-4-4-4-4-5-5-5-5-|
---------------------------------|---------------------------------|
|
G2
---------------------------------|---------------------------------|
---------------------------------|---------------------------------|
---------------------------------|---------------------------------|
---------------------------------|---------------------------------|
---------------------------------|---------------------------------|
-7-7-7-7-7-7-7-7-7-7-7-7-7-7-7-7-|-7-7-7-7-7-7-7-7-7-7-7-7-7-7-7-7-|

play theme 3 twice, then:

THEME 6

the timing for the first guitar is tricky here, just listen for it

G1
---------------------------------|---------------------------------|
---------------------------------|---------------------------------|
-------------3-------------------|-----------------3---------------|
---------7-------------------7---|-------------7---------------7---|
-5-------------------------------|-5-------------------------------|
---------------------------------|---------------------------------|
|
G2
---------------------------------|---------------------------------|
---------------------------------|---------------------------------|
---------------------------------|---------------------------------|
-7-------------------------------|-7-------------------------------|
-5-------------------------------|-5-------------------------------|
-3-------------------------------|-3-------------------------------|


G1
---------------------------------|---------------------------------|
---------------------------------|---------------------------------|
-------------5-------------------|-----------------5---------------|
---------9-------------------9---|-------------9---------------9---|
-7-------------------------------|-7-------------------------------|
---------------------------------|---------------------------------|
|
G2
---------------------------------|---------------------------------|
---------------------------------|---------------------------------|
---------------------------------|---------------------------------|
-9-------------------------------|-9-------------------------------|
-7-------------------------------|-7-------------------------------|
-5-------------------------------|-5-------------------------------|

play theme 6 through twice
now,  theme 4 is played 4 times, then theme 5 twice, then theme 6 twice

THEME 7

G1
---------------------------------|---------------------------------|
---------------------------------|---------------------------------|
-5-5-5-5-5-5-5-5-5-5-5-5-5-5-5-5-|-7-7-7-7-5-5-5-5-4-4-4-4-5-5-5-5-|
---------------------------------|---------------------------------|
---------------------------------|---------------------------------|
---------------------------------|---------------------------------|
|
G2
---------------------------------|---------------------------------|
---------------------------------|---------------------------------|
---------------------------------|---------------------------------|
---------------------------------|---------------------------------|
-3-3-3-3-3-3-3-3-3-3-3-3-3-3-3-3-|-3-3-3-3-3-3-3-3-3-3-3-3-3-3-3-3-|
---------------------------------|---------------------------------|


G1
---------------------------------|---------------------------------|
---------------------------------|-----------------4-4-4-4-4-4-4-4-|
-5-5-5-5-5-5-5-5-5-5-5-5-5-5-5-5-|-7-7-7-7-5-5-5-5-----------------|
---------------------------------|---------------------------------|
---------------------------------|---------------------------------|
---------------------------------|---------------------------------|
|
G2
---------------------------------|---------------------------------|
---------------------------------|---------------------------------|
---------------------------------|---------------------------------|
-2-2-2-2-2-2-2-2-2-2-2-2-2-2-2-2-|-2-2-2-2-2-2-2-2-2-2-2-2-2-2-2-2-|
---------------------------------|---------------------------------|
---------------------------------|---------------------------------|


G1
---------------------------------|---------------------------------|
---------------------------------|-------------------------4-4-4-4-|
-7-7-7-7-7-7-7-7-7-7-7-7-7-7-7-7-|-7-7-7-7-7-7-7-7-7-7-7-7---------|
---------------------------------|---------------------------------|
---------------------------------|---------------------------------|
---------------------------------|---------------------------------|
|
G2
---------------------------------|---------------------------------|
---------------------------------|---------------------------------|
---------------------------------|---------------------------------|
---------------------------------|---------------------------------|
-5-5-5-5-5-5-5-5-5-5-5-5-5-5-5-5-|-5-5-5-5-5-5-5-5-5-5-5-5-5-5-5-5-|
---------------------------------|---------------------------------|


G1
---------------------------------|---------------------------------|
---------------------------------|---------------------------------|
-5-5-5-5-5-5-5-5-5-5-5-5-5-5-5-5-|-5-5-5-5-5-5-5-5-5-5-5-5-5-5-5-5-|
---------------------------------|---------------------------------|
---------------------------------|---------------------------------|
---------------------------------|---------------------------------|
|
G2
---------------------------------|---------------------------------|
---------------------------------|---------------------------------|
---------------------------------|---------------------------------|
-2-2-2-2-2-2-2-2-2-2-2-2-2-2-2-2-|-2-2-2-2-2-2-2-2-2-2-2-2-2-2-2-2-|
---------------------------------|---------------------------------|
---------------------------------|---------------------------------|

play this 6 times

LEADS
these are thrown over theme 7. just long sustained notes.

--8------|----7-8-|-7------|--------|-8------|------7-|--8------|--------|
-10------|--------|-8------|--------|10------|--------|---------|--------|
---------|--------|--------|--------|--------|--------|---------|--------|
---------|--------|--------|--------|--------|--------|---------|--------|
---------|--------|--------|--------|--------|--------|---------|--------|

after the first two times, this is added:

--8------|----7-8-|-12-----|--------|-13-----|--------|-12------|--------|
---------|--------|--------|--------|--------|--------|---------|--------|
---------|--------|--------|--------|--------|--------|---------|--------|
---------|--------|--------|--------|--------|--------|---------|--------|
---------|--------|--------|--------|--------|--------|---------|--------|
---------|--------|--------|--------|--------|--------|---------|--------|



Now, back to theme 1. 2 times without drums, 6 times with, then two
times without again, as the electrics fade.
the acoustic guitar comes in with the drums and plays theme 2, but
after the drums drop out this keeps going.
after the electrics have faded, the acoustic is playing theme 2,
but with a reverse effect.

Then, the outro:

-----------------|-2--3--2h3p2--|--------------|-------0--|
-3--2h3p2--------|-3------------|-3------------|-2--3-----|
-4---------4-----|-2------------|-0------------|-2--------|
-4------------4--|-0------------|-------0------|-2--------|
-2---------------|--------------|---------4-2--|-0--------|
-----------------|--------------|-3--3---------|----------|

-----------------|-2---3---\5---|-5-----3-2-0--|----0---------|
-3--2h3p2--------|-3------------|-0------------|-3-------2-0--|
-4---------4-----|-2------------|--------------|-0------------|
-4------------4--|-0------------|--------------|--------------|
-2---------------|--------------|--------------|--------------|
-----------------|--------------|-3------------|-2-----2------|

-----------------|-2--3--2h3p2--|--------------|-------0--|
-3--2h3p2--------|-3------------|-3------------|-2--3-----|
-4---------4-----|-2------------|-0------------|-2--------|
-4------------4--|-0------------|-------0------|-2--------|
-2---------------|--------------|---------4-2--|-0--------|
-----------------|--------------|-3--3---------|----------|

-2--3--2h3------|-------------|-----0-------|--------|
-3----------3---|-3---2---2---|-0-----3-----|-0------|
-2--------------|-------------|-0-------4---|-0---3--|
-0--------------|-------------|-------------|--------|
----------------|-2-------2---|-------------|--------|
----------------|-------------|-3-----------|-2---2--|
                   (bottom note second time only)-^

repeat this whole section once, then:

----------2--|
-------------|
------2------|
--0----------|
-------------|
-------------|

END


if anyone does figure out that issue i had for theme 2, i would appreciate
it if you told me. i am curious.
or anything else i messed up, for that matter.
            
Submit corrections

comments powered by Disqus
↑ Back to top | Ulver Tabs for Bergtatt - Ind I Fjeldkamrene. Lyrics for acoustic guitar and electric guitar. 1 Tablatures and chords are parodies/interpretations of the original songs. You may use it for private study, scholarship, research or language learning purposes only