» » »

Ultraspank, Wrapped Tabs (ver.1)

Artists:  A B C D E F G H I J K L M N O P Q R S T U V W X Y Z # 

Wrapped Tabs (ver.1)

Ultraspank Tabs
 Rating:
4/5 (4 votes)
Wrapped lessons Tabs too difficult? Try these video lessons and learn fast
                Tuning - Db Ab Db Gb Bb Eb (Drop Db)
4/4 - Timing

Intro
|-----------------------------------|
|-----------------------------------| Intro bass line (I think)
|-drums, bass, and various samples--| |--------------------------|
|------for like 12 measures---------| |--------------------------|
|-----------------------------------| |--------------------------|
|-----------------------------------| |-1-1-1-1-3---0-1--0-0-1-2-|

Riff 1
|-----------|-----------|-----------|-----------|
|-----------|-----------|-----------|-----------|
|-----------|------2----|-----------|-----------|
|-1---------|-0----0----|-1---------|-(1)-------|
|-1---------|-0---------|-1---------|-(1)-------|
|-1---------|-0---------|-1---------|-(1)-------|


Riff 2 8x
|-------------------|
|-------------------|
|-------------------|
|-------------------|
|------0-1--0-0-1-2-|
|------0-1--0-0-1-2-|
p.m.........

|-----------|-----------|-----------|-----------|
|-----------|-----------|-----------|---------4-|
|-----------|------2----|-----------|--------3--|
|-1---------|-0----0----|-1---------|-(1)---1---|
|-1---------|-0---------|-1---------|-(1)-------|
|-1---------|-0---------|-1---------|-(1)-------|

8x
|-------------------|
|-------------------|
|-------------------|
|-1-----------------|
|-1----0-1--0-0-1-2-|
|-1----0-1--0-0-1-2-|
p.m..........


Riff 3 8x
|----------------|
|----------------|
|----------------|
|----------------|
|-4-3-4--1---0-0-|
|-4-3-4--1---0-0-|
p.m.

Riff 3A
|----------------|----------------|----------------|----------------|----------------|
|----------------|----------------|----------------|----------------|----------------|
|----------------|----------------|----------------|----------------|----------------|
|----------------|----------------|----------------|----------------|-4--------------|
|-5--------------|-4-3-4--1---0-0-|-5--------------|-4-3-4--1---0-0-|-5--------------|
|----------------|-4-3-4--1---0-0-|----------------|-4-3-4--1---0-0-|----------------|
p.m. p.m.

(end Riff 3A)| Tail of 1st chorus
|----------------|----------------|---------------|
|----------------|----------------|---------------|
|----------------|-7--------------|---------------|
|----------------|-4--------------|---------------|
|-4-3-4--1---0-0-|-5--------------|-4-3-4--1------|
|-4-3-4--1---0-0-|----------------|-4-3-4--1----\-|
p.m.|

Repeat Riff 3 4x

4x
|----------------|
|----------------|
|----------------|
|----------------|
|-4-3-4--1---/12-|
|-4-3-4--1---/12-|

Interlude
|---------|---------|---------|---------|
|---------|---------|---------|-15------|
|---------|---------|-14------|-14------|
|-0-------|-(0)-----|---------|---------|
|-0-------|-(0)-----|---------|---------|
|-0-------|-(0)-----|---------|---------|

8x
|--------------------|
|--------------------|
|--------------------|
|-8p0-8p7/10---------|
|-8p0-8p7/10--0-1--0-|
|-8p0-8p7/10--0-1--0-|
p.m.

Repeat Riff 3 8x
Repeat Riff 3A
|----------|
|----------|
|-7--------|
|-4--------|
|-5--------|
|----------|

Rest 8 measures

Repeat Riff 1
Repeat Riff 2 4x

(uses delay) 3x
|------------|---------|
|------------|---------|
|------------|---------|Play this w/Riff 2 5x
|------------|---------|
|------------|---------|
|-<3>--------|---------|

Repeat Riff 2 3x
            
Submit corrections

comments powered by Disqus
↑ Back to top | Ultraspank Tabs for Wrapped. Lyrics for acoustic guitar and electric guitar. Tablatures and chords are parodies/interpretations of the original songs. You may use it for private study, scholarship, research or language learning purposes only