» » »

Ultraspank, Worn Tabs (ver.1)

Artists:  A B C D E F G H I J K L M N O P Q R S T U V W X Y Z # 

Worn Tabs (ver.1)

Ultraspank Tabs
Rating:
0/5 (0 votes)
Worn lessons Tabs too difficult? Try these video lessons and learn fast
                
Tuning - Db Ab Db Gb Bb Eb (Drop Db)
4/4 - Timing

Intro
|------|--------|--------|--------|
|------|--------|--------|--------|
|-9----|-(9)----|--9-----|-(9)----|
|-7----|-(7)----|--9-----|-(9)----|
|-7----|-(7)----|--7-----|-(7)----|
|-7----|-(7)----|--7-----|-(7)----|

Verse 1
|------|--------|--------|--------|
|------|--------|--------|--------|
|-9----|--------|--9-----|-(9)----|
|-7----|--------|--9-----|-(9)----|
|-7----|--------|--7-----|-(7)----|
|-7----|--7-----|--7-----|-(7)----|

Riff 1 4x
|-------------------<4-4-4-4->-|
|-------------------<4-4-4-4->-|
|-------------------<4-4-4-4->-|
|-0-7--10--0-3--6---<4-4-4-4->-|
|-0-7--10--0-3--6--------------|
|-0-7--10--0-3--6--------------|

|-------|------------|------------|---------|
|-------|------------|------------|---------|
|-9-----|------------|-7--9--9----|-(9)-----|
|-7-----|-(7)----7-7-|-7--7--9----|-(9)-----|
|-7-----|-(7)--------|-7----------|-(7)-----|
|-7-----|-(7)--------|(7)---------|-(7)-----|

Verse 2
|---|---|-------7----------|-------7----------|
|-r-|-r-|-10----------10---|-10----------10---|
|-e-|-e-|-----9-----9----9-|-----9-----9----9-|
|-s-|-s-|------------------|------------------|
|-t-|-t-|------------------|------------------|
|---|---|------------------|------------------|

|-------7----------|-------7----------|-------7----------|-------7----------|
|-10----------10---|-10----------10---|-10----------10---|-10---------------|
|-----9-----9----9-|-----9-----9----9-|-----9-----9----9-|-----9------------|
|------------------|------------------|------------------|------------------|
|------------------|------------------|------------------|------------------|
|------------------|------------------|------------------|----------------\-|

Riff 1A 4x
|-------------------------|
|-------------------------|
|-------------------------|
|-0-7--10--0-3--6---0--2--|
|-0-7--10--0-3--6---0--2--|
|-0-7--10--0-3--6---0--2--|

Riff 2 8x
|------------------------|
|------------------------|
|------------------------|
|-0--3--2---0-3-0-0h2-2--|
|-0--3--2---0-3-0-0h2-2--|
|-0--3--2---0-3-0-0h2-2--|


|-----------|------------|----------|-------|
|-----------|------------|----------|--5----|
|-----------|-9----9-----|----------|--4----|
|-0---------|(0)-9-7-----|-2--------|--2----|
|-0---------|(0)---------|-2--------|-(2)---|
|-0---------|(0)---------|-2--------|-(2)---|

|-----------|------------|----------|---------|
|-----------|------------|----------|--5------|
|-----------|------------|----------|--4------|
|-0---------|-5---7------|-2--------|--2------|
|-0---------|(0)---------|-2--------|--2------|
|-0---------|(0)---------|-2--------|--2------|

Repeat Riff 1 
Repeat Riff 1A 
Repeat Riff 2 

|---------------------------------------------|---------------------------------------------|
|---------------------------------------------|---------------------------------------------|
|---------------------------------------------|---------------------------------------------|
|---------------------------------14-14-14-14-|-12-10-0-12-10-0-12-10-0-12-10-0-14-14-14-14-|
|---------------------------------14-14-14-14-|-12-10-0-12-10-0-12-10-0-12-10-0-14-14-14-14-|
|-12-10-0-12-10-0-12-10-0-12-10-0-14-14-14-14-|-12-10-0-12-10-0-12-10-0-12-10-0-14-14-14-14-|
p.m............................

|---------------------------------------|
|---------------------------------------|
|---------------------------------------|
|-12-10-0-12-10-0-12-10-0-12-10-0-14----|
|-12-10-0-12-10-0-12-10-0-12-10-0-14----|
|-12-10-0-12-10-0-12-10-0-12-10-0-14----|

7x
|---------------------------------------------|---------------------------------------|
|---------------------------------------------|---------------------------------------|
|---------------------------------------------|---------------------------------------|
|-12-10-0-12-10-0-12-10-0-12-10-0-14-14-14-14-|-12-10-0-12-10-0-12-10-0-12-10-0-14----|
|-12-10-0-12-10-0-12-10-0-12-10-0-14-14-14-14-|-12-10-0-12-10-0-12-10-0-12-10-0-14----|
|-12-10-0-12-10-0-12-10-0-12-10-0-14-14-14-14-|-12-10-0-12-10-0-12-10-0-12-10-0-14----|

|-------|------------|------------|---------|
|-------|------------|------------|---------|
|-9-----|------------|-7--9--9----|-(9)-----|
|-7-----|-(7)--------|-7--7--9----|-(9)-----|
|-7-----|-(7)--------|------------|---------|
|-7-----|-(7)--------|------------|---------|

Verse 3
|------|--------|--------|--------|
|------|--------|--------|--------|
|-9----|-(9)----|-9------|-(9)----|
|-7----|-(7)----|-9------|-(9)----|
|-7----|-(7)----|-7------|-(7)----|
|-7----|-(7)----|-7------|-(7)----|

Repeat Riff 1A 4x
Repeat Riff 2 8x

|-----------|------------|----------|-------------|
|-----------|------------|----------|--5----------|
|-----------|-9----9-----|----------|--4----------|
|-0---------|(0)-9-7-----|-2--------|--2-------7-7|
|-0---------|(0)---------|-2--------|-(2)---------|
|-0---------|(0)---------|-2--------|-(2)---------|

|----------=|------------|-----------|----------------------------------|
|-----------|------------|-----------|----------------------------------|
|-7-9--9----|-(9)--------|-7-9--9----|-9b1/2-r(9)b1/2-r(9)b1/2----------|
|-7-7--7----|-(7)----7-7-|-7-7--7----|------------------------------7-7-|
|-----------|------------|-----------|----------------------------------|
|-----------|------------|-----------|----------------------------------|

|------------------|------------------|------------------|------------------|
|------------------|------------------|------------------|------------------|
|------------------|------------------|------------------|------------------|
|--7---9------7----|--7---9------7----|--7---9------7----|--7---7--9--------|
|--7-7------7---7--|--7-7------7---7--|--7-7------7---7--|--7---7--7--------|
|--7---------------|--7---------------|--7---------------|--7------7--------|

most of this sould be right but some parts sound a little off.----BumbaX
            
Submit corrections

comments powered by Disqus
↑ Back to top | Ultraspank Tabs for Worn. Lyrics for acoustic guitar and electric guitar. Tablatures and chords are parodies/interpretations of the original songs. You may use it for private study, scholarship, research or language learning purposes only