» » »

Ultraspank, Where Tabs (ver.1)

Artists:  A B C D E F G H I J K L M N O P Q R S T U V W X Y Z # 

Where Tabs (ver.1)

Ultraspank Tabs
 Rating:
4/5 (4 votes)
Where lessons Tabs too difficult? Try these video lessons and learn fast
                

Two guitars involved (acoustic & electric)

Intro

e---3--3--3--3--3--3--3--3--3-------------------------------|
B---3--3--3--3--3--3--3--3--3--3--3--3--3--3--3--3--3--3----|
G---5--5--5--5--5--5--5--5--5--5--5--5--5--5--5--5--5--5----|
D---5--5--5--5--5--5--5--5--5--3--3--3--3--3--3--3--3--3----|
A---3--3--3--3--3--3--3--3--3--3--3--3--3--3--3--3--3--3----|
E-----------------------------------------------------------| 


e---3--3--3--3--3--3--3--3--3-----------------1--1--1-------|
B---3--3--3--3--3--3--3--3--3--3--3--3--3--3--1--1--1-------|
G---5--5--5--5--5--5--5--5--5--5--5--5--5--5--3--3--3-------|
D---5--5--5--5--5--5--5--5--5--3--3--3--3--3--3--3--3-------|
A---3--3--3--3--3--3--3--3--3--3--3--3--3--3--1--1--1-------|
E-----------------------------------------------------------|


Verse (Same As Intro)

e---3--3--3--3--3--3--3--3--3-------------------------------|
B---3--3--3--3--3--3--3--3--3--3--3--3--3--3--3--3--3--3----|
G---5--5--5--5--5--5--5--5--5--5--5--5--5--5--5--5--5--5----|
D---5--5--5--5--5--5--5--5--5--3--3--3--3--3--3--3--3--3----|
A---3--3--3--3--3--3--3--3--3--3--3--3--3--3--3--3--3--3----|
E-----------------------------------------------------------| 

e---3--3--3--3--3--3--3--3--3-----------------1--1--1-------|
B---3--3--3--3--3--3--3--3--3--3--3--3--3--3--1--1--1-------|
G---5--5--5--5--5--5--5--5--5--5--5--5--5--5--3--3--3-------|
D---5--5--5--5--5--5--5--5--5--3--3--3--3--3--3--3--3-------|
A---3--3--3--3--3--3--3--3--3--3--3--3--3--3--1--1--1-------|
E-----------------------------------------------------------| x3

Chorus

e---3--3--3--3--3--3--3--3--3--6--6--6--6--6--6--6--6--6----|
B---3--3--3--3--3--3--3--3--3--6--6--6--6--6--6--6--6--6----|
G---5--5--5--5--5--5--5--5--5--8--8--8--8--8--8--8--8--8----|
D---5--5--5--5--5--5--5--5--5--8--8--8--8--8--8--8--8--8----|
A---3--3--3--3--3--3--3--3--3--6--6--6--6--6--6--6--6--6----|
E---3--3--3--3--3--3--3--3--3--6--6--6--6--6--6--6--6--6----| 

e------------------------------6--6--6--6--6----------------|
B---6--6--6--6--6--6--6--6--6--6--6--6--6--6----------------|
G---5--5--5--5--5--5--5--5--5--8--8--8--8--8----------------|
D---3--3--3--3--3--3--3--3--3--8--8--8--8--8--8--8--8--8--8-|
A------------------------------6--6--6--6--6--8--8--8--8--8-|
E------------------------------6--6--6--6--6--6--6--6--6--6-| x2 

Part After Chorus

e---3--3--3--3--3--3--3--3--3-------------------------------|
B---3--3--3--3--3--3--3--3--3--3--3--3--3--3--3--3--3--3----|
G---5--5--5--5--5--5--5--5--5--5--5--5--5--5--5--5--5--5----|
D---5--5--5--5--5--5--5--5--5--3--3--3--3--3--3--3--3--3----|
A---3--3--3--3--3--3--3--3--3--3--3--3--3--3--3--3--3--3----|
E-----------------------------------------------------------| 


e---3--3--3--3--3--3--3--3--3-----------------1--1--1-------|
B---3--3--3--3--3--3--3--3--3--3--3--3--3--3--1--1--1-------|
G---5--5--5--5--5--5--5--5--5--5--5--5--5--5--3--3--3-------|
D---5--5--5--5--5--5--5--5--5--3--3--3--3--3--3--3--3-------|
A---3--3--3--3--3--3--3--3--3--3--3--3--3--3--1--1--1-------|
E-----------------------------------------------------------|

Verse

e---3--3--3--3--3--3--3--3--3-------------------------------|
B---3--3--3--3--3--3--3--3--3--3--3--3--3--3--3--3--3--3----|
G---5--5--5--5--5--5--5--5--5--5--5--5--5--5--5--5--5--5----|
D---5--5--5--5--5--5--5--5--5--3--3--3--3--3--3--3--3--3----|
A---3--3--3--3--3--3--3--3--3--3--3--3--3--3--3--3--3--3----|
E-----------------------------------------------------------| 

e---3--3--3--3--3--3--3--3--3-----------------1--1--1-------|
B---3--3--3--3--3--3--3--3--3--3--3--3--3--3--1--1--1-------|
G---5--5--5--5--5--5--5--5--5--5--5--5--5--5--3--3--3-------|
D---5--5--5--5--5--5--5--5--5--3--3--3--3--3--3--3--3-------|
A---3--3--3--3--3--3--3--3--3--3--3--3--3--3--1--1--1-------|
E-----------------------------------------------------------| x2


Chorus

e---3--3--3--3--3--3--3--3--3--6--6--6--6--6--6--6--6--6----|
B---3--3--3--3--3--3--3--3--3--6--6--6--6--6--6--6--6--6----|
G---5--5--5--5--5--5--5--5--5--8--8--8--8--8--8--8--8--8----|
D---5--5--5--5--5--5--5--5--5--8--8--8--8--8--8--8--8--8----|
A---3--3--3--3--3--3--3--3--3--6--6--6--6--6--6--6--6--6----|
E---3--3--3--3--3--3--3--3--3--6--6--6--6--6--6--6--6--6----| 

e------------------------------6--6--6--6--6----------------|
B---6--6--6--6--6--6--6--6--6--6--6--6--6--6----------------|
G---5--5--5--5--5--5--5--5--5--8--8--8--8--8----------------|
D---3--3--3--3--3--3--3--3--3--8--8--8--8--8--8--8--8--8--8-|
A------------------------------6--6--6--6--6--8--8--8--8--8-|
E------------------------------6--6--6--6--6--6--6--6--6--6-| x2 

Bridge (Piano)

e-------------------------------------------------|
B---8--11--6--4--1--(1)--8--11--6--4--8--(8)------|
G-------------------------------------------------|
D-------------------------------------------------|
A-------------------------------------------------|
E-------------------------------------------------|

Part Where Acoustic And Electric Play on Full Volume

e---3--3--3--3--3--3--3--3--3--6--6--6--6--6--6--6--6--6----|
B---3--3--3--3--3--3--3--3--3--6--6--6--6--6--6--6--6--6----|
G---5--5--5--5--5--5--5--5--5--8--8--8--8--8--8--8--8--8----|
D---5--5--5--5--5--5--5--5--5--8--8--8--8--8--8--8--8--8----|
A---3--3--3--3--3--3--3--3--3--6--6--6--6--6--6--6--6--6----|
E---3--3--3--3--3--3--3--3--3--6--6--6--6--6--6--6--6--6----| 

e------------------------------6--6--6--6--6----------------|
B---6--6--6--6--6--6--6--6--6--6--6--6--6--6----------------|
G---5--5--5--5--5--5--5--5--5--8--8--8--8--8----------------|
D---3--3--3--3--3--3--3--3--3--8--8--8--8--8--8--8--8--8--8-|
A------------------------------6--6--6--6--6--8--8--8--8--8-|
E------------------------------6--6--6--6--6--6--6--6--6--6-| x2

Chorus & Outro

e---3--3--3--3--3--3--3--3--3--6--6--6--6--6--6--6--6--6----|
B---3--3--3--3--3--3--3--3--3--6--6--6--6--6--6--6--6--6----|
G---5--5--5--5--5--5--5--5--5--8--8--8--8--8--8--8--8--8----|
D---5--5--5--5--5--5--5--5--5--8--8--8--8--8--8--8--8--8----|
A---3--3--3--3--3--3--3--3--3--6--6--6--6--6--6--6--6--6----|
E---3--3--3--3--3--3--3--3--3--6--6--6--6--6--6--6--6--6----| 

e------------------------------6--6--6--6--6----------------|
B---6--6--6--6--6--6--6--6--6--6--6--6--6--6----------------|
G---5--5--5--5--5--5--5--5--5--8--8--8--8--8----------------|
D---3--3--3--3--3--3--3--3--3--8--8--8--8--8--8--8--8--8--8-|
A------------------------------6--6--6--6--6--8--8--8--8--8-|
E------------------------------6--6--6--6--6--6--6--6--6--6-| x4

Ends On (acoustic) -  listen closely

e---3------|
B---3------|
G---5------|
D---5------|
A---3------|
E---3------| 
            
Submit corrections

comments powered by Disqus
↑ Back to top | Ultraspank Tabs for Where. Lyrics for acoustic guitar and electric guitar. Tablatures and chords are parodies/interpretations of the original songs. You may use it for private study, scholarship, research or language learning purposes only