» » »

Ultraspank, Sponge Tabs (ver.1)

Artists:  A B C D E F G H I J K L M N O P Q R S T U V W X Y Z # 

Sponge Tabs (ver.1)

Ultraspank Tabs
 Rating:
4/5 (4 votes)
Sponge lessons Tabs too difficult? Try these video lessons and learn fast
1
                Tuning - Db Ab Db Gb Bb Eb (Drop Db and a step)
4/4 - Timing

Riff 1 (clean) 4x
|--------------------------------|
|--------------------------------|
|--------------------------------|
|-2h3-3---3/5----5/7---7-----7---|
|-0----0--(0)-0-(0)--0----0----0-|let A string ring in this riff
|--------------------------------|

w/riff 1 four times
Riff 2 (dist) 2x
|-----------|-----------|-----------|-----------|
|-----------|-----------|-----------|-----------|
|-9-------7-|-10------7-|-9-------7-|-12----10--|
|-----------|-----------|-----------|-----------|
|-7-------5-|-8-------5-|-7-------5-|-10----8---|
|-----------|-----------|-----------|-----------|

verse
Riffs 3 and 3A, respectively
Gtr 1 4x
|-------------|-------------|
|-------------|-------------|
|-9-----------|-7-----------|
|-7-----------|-7-----------|
|-------------|-------------|
|-------------|-------------|

|Gtr 2 | 4x|
|-------------|-------------|
|-------------|-------------|
|---9---9---9-|---7---7---7-|
|-7---7----7--|-5---5----5--|
|-------------|-------------|
|-------------|-------------|


Chorus
Riff 4
|------------------------------|------------------------------|------------------------------|
|------------------------------|------------------------------|------------------------------|
|------------------------------|------------------------------|------------------------------|
|-5h7-7-7-7--7-7--7-7--8-8-8-8-|-5h7-7-7-7--7-7--7-7--8-8-8-8-|-5h7-7-7-7--7-7--7-7--8-8-8-8-|
|-5h7-7-7-7--7-7--7-7--8-8-8-8-|-5h7-7-7-7--7-7--7-7--8-8-8-8-|-5h7-7-7-7--7-7--7-7--8-8-8-8-|
|-5h7-7-7-7--7-7--7-7--8-8-8-8-|-5h7-7-7-7--7-7--7-7--8-8-8-8-|-5h7-7-7-7--7-7--7-7--8-8-8-8-|

(end Riff 4) 2x
|------------------------------|
|------------------------------|
|------------------------------|
|-3---3-3-3--3-3--3-3--5-5-5-5-|
|-3---3-3-3--3-3--3-3--5-5-5-5-|
|-3---3-3-3--3-3--3-3--5-5-5-5-|

Repeat Riff 3 and Riff 3A 4x

Repeat Riff 4 2x

Riff 5A 2x
|----------------------------------|
|----------------------------------|
|----------------------------------|
|-2-------------------------3--3-3-|
|-2-------------------------2--2-2-|
|-2--2-2-3-2-2-5-2-2-3-2-2--2--2-2-|
p.m...................

Riff 5B 2x
|----------------------------------|
|----------------------------------|
|----------------------------------|
|---------------------------3--3-3-|
|-2-------------------------2--2-2-|
|-2--2-2-3-2-2-5-2-2-3-2-2--2--2-2-|

Riff 5C 3x (end Riff 5C)
|------------------------------|------------------------------|
|------------------------------|------------------------------|
|------------------------------|------------------------------|
|-2--2-2-2---2-2---2-2---2-0-3-|-2--2-2-2---2-2---2-2---2-2-2-|
|-2--2-2-2---2-2---2-2---2-0-3-|-2--2-2-2---2-2---2-2---2-2-2-|
|-2--2-2-2---2-2---2-2---2-0-3-|-2--2-2-2---2-2---2-2---2-2-2-|

Repeat Riff 3A 2x & Riff 1 with clean tone 4x
|-------|-------|-------|-------|
|-------|-------|-------|-------|
|-9-----|-(9)---|-------|-------|
|-------|-------|-------|-------|
|-7-----|-(7)---|-------|-------|
|-------|-------|-------|-------|

Repeat Riff 1 3.5x & Riff 3A 7x 

Repeat Riff 1

|--------------------------------|------------------------------|-------------------------------|
|--------------------------------|------------------------------|-------------------------------|
|*-------------------------------|------------------------------|-------------------------------|
|*-7-7-5-7-7-5-7-7-5-7-7-5-7-7-5-|-8-8-7-8-8-7-8-8-7-8-8-7-8--5-|-7-7-5-7-7-5-7-7-5-7-7-5-7-7-5-|
|--7-7-5-7-7-5-7-7-5-7-7-5-7-7-5-|-8-8-7-8-8-7-8-8-7-8-8-7-8--5-|-7-7-5-7-7-5-7-7-5-7-7-5-7-7-5-|
|--7-7-5-7-7-5-7-7-5-7-7-5-7-7-5-|-8-8-7-8-8-7-8-8-7-8-8-7-8--5-|-7-7-5-7-7-5-7-7-5-7-7-5-7-7-5-|

2x
|--------------------------------|
|--------------------------------|
|-------------------------------*|
|-3-3-2-3-3-2-3-3-2-3-3-2-3---5-*|
|-3-3-2-3-3-2-3-3-2-3-3-2-3---5--|
|-3-3-2-3-3-2-3-3-2-3-3-2-3---5--|

Repeat Riff 5A 2x
Repeat Riff 5B 2x
Repeat Riff 5C 2x

Repeat Riff 1 8x with Riff 2 2x

|--------|
|--------|
|-9------|
|-7------|
|-7------|
|-7------|
Some parts are off-- BumbaX
            
Submit corrections

comments powered by Disqus
↑ Back to top | Ultraspank Tabs for Sponge. Lyrics for acoustic guitar and electric guitar. 1 Tablatures and chords are parodies/interpretations of the original songs. You may use it for private study, scholarship, research or language learning purposes only