» » »

Slip Tabs (ver.1)

Artists:  A B C D E F G H I J K L M N O P Q R S T U V W X Y Z # 

Slip Tabs (ver.1)

Ultraspank
Rating:
0/5 (0 votes)

Hard to play? Try these video lessons and learn fast.
                Tuning - Db Ab Db Gb Bb Eb (Drop Db)
4/4 - Timing

Riff 1 
4x 
|----------------------------------------------|
|----------------------------------------------|
|----------------------------------------------|
|----------------------------------------------|
|----------------------------------------------|
|-13p12-0-13p12-0-13p12-0-13p12-0-13p12--13p12-|
Repeat Riff 1 4x

Riff 1A (with same effect) 4x
|-----------------------------------<4-4-4-4>--|
|-----------------------------------<4-4-4-4>--|
|-----------------------------------<4-4-4-4>--|
|-----------------------------------<4-4-4-4>--|
|----------------------------------------------|
|-13p12-0-13p12-0-13p12-0-13p12-0--------------|

Chorus
Riff 2 both gtrs 4x
|-----------------------------|-------------------------------|
|-----------------------------|-------------------------------|
|-----------------------------|-------------------------------|
|-0----0-3h6-0----0--1h3-1h3--|-0----0-3h6-0------------------|
|-0----0-3h6-0----0--1h3-1h3--|-0----0-3h6-0--3-5-3---3-------|
|-0----0-3h6-0----0--1h3-1h3--|-0----0-3h6-0--------6---6-5-3-|

Repeat Riff 1 4x
Repeat Riff 1A 4x
Repeat Riff 2 4x

Interlude 
2x
|---------------|--------------------------|
|---------------|-------6------------------|
|-7-------7-----|----5------6---6---5--5---|
|-7-------6-----|-3---------4---4---5--5---|
|-5-------5-----|-3---------4---4---3--3---|
|-0-------------|-3---------4---4----------|

Riff 3 2x
|------------------------|-------------------------------|
|------------------------|-------------------------------|
|--7--7--7----7--7--7----|-5--5-5--5-5--6-6-6-6--5-5-5-5-|
|--7--7--7----6--6--6----|-3--3-3--3-3--4-4-4-4--5-5-5-5-|
|--5--5--5----5--5--5----|-3--3-3--3-3--4-4-4-4--3-3-3-3-|
|------------------------|-3--3-3--3-3--4-4-4-4----------|


|-----------|
|-----------|
|-feedback--|
|-and cr*p--|
|--8 meas---|
|-----------|

Repeat Riff 3 4x
Repeat Riff 1 4x
Repeat Riff 1 4x 
Repeat Riff 1A 4x

Outro 4x
|-------------------------x-x-<4>-<4>-|
|-----------------x-x-x-x-x-x--x---x--|
|---------x-x-x-x-x-x-x-x-x-x--x---x--|
|-x-x-x-x-x-x-x-x-x-x-x-x-------------|
|-x-x-x-x-x-x-x-x---------------------|
|-------------------------------------|
A wah wah pedal is used to do this. it's simple once u get the hang of it---- BumbaX
            
Hard to play? Try these video lessons and learn fast. | Correct




comments powered by Disqus
↑ Back to top | Tablatures and chords are parodies/interpretations of the original songs. You may use it for private study, scholarship, research or language learning purposes only