» » »

Push Tabs (ver.1)

Artists:  A B C D E F G H I J K L M N O P Q R S T U V W X Y Z # 

Push Tabs (ver.1)

Ultraspank
Rating:
0/5 (0 votes)

Hard to play? Try these video lessons and learn fast.
                Tuning: Drop Db ( Db Ab Db Gb Bb Eb )

I've been waiting for a tab for this song for ages but its not coming
so I've gone for it myself. Too bad they broke up. In the songs I've
heard from Pete's new band Lo-Pro, he's abandoned his screaming ways.


:: Verse 1 ::
[tremolo & delay]


"on my shoulder..."
|-------------------------------
|-------------------------------
|------------------3~~~---------
|-------------------------------
|-------------------------------
|-------------------------------
                   Gb

"on the horizon..."
|-------------------------------
|-------------------------------
|------------------3~~~---------
|-------------------------------
|-------------------------------
|-------------------------------
                   Gb


:: Main riff ::
 [distortion]

"Push!!"

|-0--7--2-0-7---
|-0--7--2-0-7---
|-0--7--2-0-7---
  Cb Gb D


:: Verse 2 ::
[tremolo & delay]

"story of old.."

|---------------|-7-7-0-7-7-0-7-7-
|---------------|----------------- (repeat)
|---------------|-----------------
                pm. . . . . . . . might not be palm-muted, can't tell


 MAIN riff


                      x3
|-0-0-0-0-7-7-7-2-2-7-7-|-0-0-0-0-7-7-2-2-2-7-7-|
|-0-0-0-0-7-7-7-2-2-7-7-|-0-0-0-0-7-7-2-2-2-7-7-|
|-0-0-0-0-7-7-7-2-2-7-7-|-0-0-0-0-7-7-2-2-2-7-7-|
pm. . . . . . . . . . .   . . . . . . . . .



:: Chorus riff ::
  [distortion]

"Its hard out here..."
|-----------10-----
|-0--7p0-0--10-----
|-0--7p0-0--8------
|-0--7p0-0---------

 MAIN

 CHORUS

:: Bridge ::  ( 2:17 )
[distortion]

|-7~~~---------------------------------|-0-7-7-7-
|-7~~~---------------------------------|-0-7-7-7-
|-7~~~---------------------------------|-0-7-7-7-


(2:49)

|---------------0~~-------1-----0------1-----
|--------------------------------------------
|-----2~~------------------------------------
|-0-2-------0-2-------0-2---0-2----0-2-------
|--------------------------------------------
|--------------------------------------------

 CHORUS

 MAIN

|0--7---7-7-7-
|0--7---7-7-7-
|0--7---7-7-7-
pm      . . .


Sounds pretty accurate to me. Enjoy!
            
Hard to play? Try these video lessons and learn fast. | Correct




comments powered by Disqus
↑ Back to top | Tablatures and chords are parodies/interpretations of the original songs. You may use it for private study, scholarship, research or language learning purposes only