» » »

Ultraspank, Click Tabs (ver.1)

Artists:  A B C D E F G H I J K L M N O P Q R S T U V W X Y Z # 

Click Tabs (ver.1)

Ultraspank Tabs
 Rating:
4/5 (4 votes)
Click lessons Tabs too difficult? Try these video lessons and learn fast
1
                Standard tuning- time 2/4
not totally complete and not totally sure of tabs.
~=vibrato listen to the song for better timing.

INTRO: 4x
e|--------------------------------------------------------------|
B|--------------------------------------------------------------|
D|--------------------------------------------------------------|
G|--10-10----8-8/10-10~----10-10/11-11\10-/8\-10----6~----3~----|
A|--10-10----8-8/10-10~----10-10/11-11\10-/8\-10----6~----3~----|
E|---8--8----6-6/-8--8~-----8--8/-9--9\-8-/6\--8----4~----1~----|

VERSE 1:
|------------------------------------------------------|
|------------------------------------------------------|
|------------------------------------------------------|
|--10~~-------10--10--6--8--10---------10--10--6--8----|
|--10~~-------10--10--6--8--10---------10--10--6--8----|
|---8~~--------8---8--4--6---8----------8---8--4--6----|

|--------------------------------------------|
|--------------------------------------------|
|--------------------------------------------|
|--10-10/11-11\10-----10-10/11-11\10-/8\-10--|
|--10-10/11-11\10-----10-10/11-11\10-/8\-10--|
|---8--8/-9--9\-8------8--8/-9--9\-8-/6\--8--|

VERSE 2:
|--------------------------------------|
|--------------------------------------|
|--------------------------------------|
|--10~~-------10--10--6--8--10----10~--|
|--10~~-------10--10--6--8--10----10~--|
|---8~~--------8---8--4--6---8-----8~--|

CHORUS: 4x
|-------------------------------------------------------------|
|-------------------------------------------------------------|
|-------------------------------------------------------------|
|--10-10----8-8/10-10----10-10/11-11\10-/8\-10----6~----3~----|
|--10-10----8-8/10-10----10-10/11-11\10-/8\-10----6~----3~----|
|---8--8----6-6/-8--8-----8--8/-9--9\-8-/6\--8----4~----1~----|

BRIDGE:
|--------------------------------------|
|--------------------------------------|
|--------------------------------------|
|--10-----6--8---6--5---6--8----10~~---|
|--10-----6--8---6--5---6--8----10~~---|
|---8-----4--6---4--3---4--6-----8~~---|

CHORUS/OUTRO: 3x
|--------------------------------------------------------------|
|--------------------------------------------------------------|
|--------------------------------------------------------------|
|--6~----3~-----10-10----8-8/10-10~----10-10/11-11\10-/8\-10---|
|--6~----3~-----10-10----8-8/10-10~----10-10/11-11\10-/8\-10---|
|--4~----1~------8--8----6-6/-8--8~-----8--8/-9--9\-8-/6\--8---|

|--------------|
|--------------|
|--------------|
|--6~----3~----|
|--6~----3~----|
|--4~----1~----|
4x
|-------------------------------------------------------------------|
|-------------------------------------------------------------------|
|-------------------------------------------------------------------|
|--10-10----8-8/10-10~----10-10/11-11\10-/8\-10----6~----3~---3~----|
|--10-10----8-8/10-10~----10-10/11-11\10-/8\-10----6~----3~---3~----|
|---8--8----6-6/-8--8~-----8--8/-9--9\-8-/6\--8----4~----1~---1~----|
not sure of end.
            
Submit corrections

comments powered by Disqus
↑ Back to top | Ultraspank Tabs for Click. Lyrics for acoustic guitar and electric guitar. 1 Tablatures and chords are parodies/interpretations of the original songs. You may use it for private study, scholarship, research or language learning purposes only