» » »

Ultima Thule, Knekt Och Karolin Tabs (ver.1)

Artists:  A B C D E F G H I J K L M N O P Q R S T U V W X Y Z # 

Knekt Och Karolin Tabs (ver.1)

Ultima Thule Tabs
 Rating:
4/5 (4 votes)
Knekt Och Karolin lessons Tabs too difficult? Try these video lessons and learn fast
1
                Ultima Thule - Knekt Och Karolin
     
     D                 G                                   A       D
e|------------------------------------------------------|---------------------|
B|------------------------------------------------------|---------------------|
G|---7-7-7-7-8-7----------------------------------------|----------7----------|
D|---7-7-7-7-8-7--8-7--5-5-5-5-5-5-5--------------------|--7-------7----------|
A|---5-5-5-5-6-5--8-7--5-5-5-5-5-5-5--------------------|--7-------5----------|
E|----------------6-5--3-3-3-3-3-3-3--------------------|--5------------------| x4

Play A D on the last mesure one you've played the riff 4 times


Solo:
     Gm                         F            D      F       Gm                             
e|---------------------------------------------------------------------------|
B|---------------------------------------------------------------------------|
G|---------------------------------------------------------------------------|
D|---7---8-7--5--3--2--0------0-2--3--5------7---8--10--2--------------------|
A|--------------------------------------3------------------------------------|
E|---------------------------------------------------------------------------|
     Gm                         F            D      F       Gm     
e|---------------------------------------------------------------------------|
B|---------------------------------------------------------------------------|
G|---------------------------------------------------------------------------|
D|---7---8-7--5--3--2--0------0-2--3--5------7---5---3---2-------------------|
A|--------------------------------------3------------------------------------|
E|---------------------------------------------------------------------------|

Gm
Bak sl*tna ögon jag ser dem gå

Fast tid nu är förbi
      F               
Och i drömmars dimma, rök och damm
   Bb                  Gm
Är jag med och trampar fram
Gm
Stampar fram, frid och larm
F
Över land och över hav
    Bb             Gm
Karoliners spår gå fram

Riff

Gm             F
Lugn i ledet, vild i larm
   Bb            D
En knekt och Karolin
  Gm               F                 Bb     D   
I blått och gult så stod en gång vår man
G          F
Fotsoldat, kavalleri
   Bb            D
En knekt och Karolin
Gm              F             Bb    D 
Bussar som gott fäkta och gå på

Solo

Vid narva seger, Poltava sorg
Över fjäll i storm och köld
De gick för konung, land och gud
Och högt sin fana höll
Se dem gå, jag ser dem gå
I snårig skog, över vitt moras
och brända fält de gå

Riff

Lugn i ledet, vild i larm
En knekt och Karolin
I blått och gult så stod en gång vår man
Fotsoldat, kavalleri
En knekt och Karolin
Bussar som gott fäkta och gå på

And repreat the riff ad libitum!

Knekt och karolin
            
Submit corrections

comments powered by Disqus
↑ Back to top | Ultima Thule Tabs for Knekt Och Karolin. Lyrics for acoustic guitar and electric guitar. 1 Tablatures and chords are parodies/interpretations of the original songs. You may use it for private study, scholarship, research or language learning purposes only