» » »

Ultima Thule, Du Gamla Du Fria Bass tabs (ver.1)

Artists:  A B C D E F G H I J K L M N O P Q R S T U V W X Y Z # 

Du Gamla Du Fria Bass tabs (ver.1)

Ultima Thule Tabs
 Rating:
4/5 (4 votes)
Du Gamla Du Fria lessons Tabs too difficult? Try these video lessons and learn fast
1
                |----------------|----------------|----------------|----------------|
|----------------|----------------|----------------|----------------|
|5-5-5-5-5-5-5-5-|5-5-5-5-5-5-5-5-|5-5-5-5-5-5-5-5-|0-0-0-0-0-0-0-0-|
|----------------|----------------|----------------|----------------|

|----------------|----------------|----------------|----------------|
|----------------|----------------|----------------|----------------|
|0-0-0-0-0-0-0-0-|7-7-7-7-7-7-7-7-|5-5-5-5-5-5-5-5-|5-5-5-5-5-5-5-5-|
|----------------|----------------|----------------|----------------|

|----------------|----------------|----------------|----------------|
|----------------|----------------|----------------|----------------|
|0-0-0-0-0-0-0-0-|0-0-0-0-0-0-0-0-|----------------|0-0-0-0-0-0-0-0-|
|----------------|----------------|3-3-3-3-3-3-3-3-|----------------|

|----------------|----------------|----------------|----------------|
|----------------|----------------|----------------|----------------|
|5-5-5-5-5-5-5-5-|5-5-5-5-5-5-5-5-|0-0-0-0-0-0-0-0-|5-5-5-5-5-5-5-5-|
|----------------|----------------|----------------|----------------|

|----------------|----------------|----------------|----------------|
|----------------|----------------|----------------|----------------|
|5-5-5-5-5-5-5-5-|5-5-5-5-5-5-5-5-|0-0-0-0-0-0-0-0-|5-5-5-5-5-5-5-5-|
|----------------|----------------|----------------|----------------|

Upprepa detta flera gånger. :)
            
Submit corrections

comments powered by Disqus
↑ Back to top | Ultima Thule Bass for Du Gamla Du Fria. Lyrics for acoustic guitar and electric guitar. 1 Tablatures and chords are parodies/interpretations of the original songs. You may use it for private study, scholarship, research or language learning purposes only