» » »

Baring Nord Tabs (ver.1)

Artists:  A B C D E F G H I J K L M N O P Q R S T U V W X Y Z # 

Baring Nord Tabs (ver.1)

Ultima Thule
Rating:
0/5 (0 votes)

Hard to play? Try these video lessons and learn fast.
                ULTIMA THULE - BÄRING NORD

Tabbad av Stefan Nilsson 2010-09-11

h   = hammer on
p   = pull off
p.m = palm muting


---------------------------
Intro, mellanspel och vers.
---------------------------

    Em              G               D               Em
E |-0-------0-----0-3-------3-----3-2-------3-2-2-0-0-------0-----0-|
B |-0-------0-----0-0-------0-----0-3-------3-3-3-3-0-------0-----0-|
G |-0-------0-----0-0-------0-----0-2-------2-2-2-2-0-------0-----0-|
D |-2-------2---2---0-------0---0---0-------0-0-0-0-2-------2---2---|
A |-2-------2---2---2-------2---2-------------------2-------2---2---|
E |-0-------0---0---3-------3---3-------------------0-------0---0---|
 
På D ovan körs Dsus4 följt av Dsus2, enligt tab.


-------------------------------
Slingan på introt/mellanspelet.
-------------------------------

    Em              G               D               Em
E |-----------------------------------------------------------------|
B |-------------7---8---------------8-----------7-------------------|
G |-9-----------------------------------------------9---------------|
D |-----------------------------------------------------------------|
A |-----------------------------------------------------------------|
E |-----------------------------------------------------------------|

    Em              G               D               Em
E |-7---------------------------------------------------------------|
B |-------------10--8-------8h10p8--7-------7h8p7-------------------|
G |-----------------------------------------------8h9---------------|
D |-----------------------------------------------------------------|
A |-----------------------------------------------------------------|
E |-----------------------------------------------------------------|


---------------
Dist på versen.
---------------

    Em              G               D               Em
E |-----------------------------------------------------------------|
B |-----------------------------------------------------------------|
G |-----------------------------------------------------------------|
D |-----------------------------------------------------------------|
A |---------------------------------5-5-5-5-5-5-5-5-----------------|
E |-0-0-0-0-0-0-0-0-3-3-3-3-3-3-3-3-----------------0-0-0-0-0-0-0-0-|
p.m . . . . . . . . . . . . . . . . . . . . . . . . . . . . . . . .


--------
Refräng.
--------

    G               D               Em              C
E |-----------------------------------------------------------------|
B |-----------------------------------------------------------------|
G |-----------------7---------------9---------------5---------------|
D |-5---------------7---------------9---------------5---------------|
A |-5---------------5---------------7---------------3---------------|
E |-3---------------------------------------------------------------|

    G               D               Bm              
E |-----------------------------------------------------------------|
B |-----------------------------------------------------------------|
G |-----------------7---------------4-------------------------------|
D |-5---------------7---------------4-------------------------------|
A |-5---------------5---------------2-------------------------------|
E |-3---------------------------------------------------------------|


--------
Bryggan.
--------

    C               D               Em
E |-----------------------------------------------------------------|
B |-----------------------------------------------------------------|
G |-5---------------7---------------9-------------------------------|
D |-5---------------7---------------9-------------------------------| X2
A |-3---------------5---------------7-------------------------------|
E |-----------------------------------------------------------------|

    C               D               Bm              
E |-----------------------------------------------------------------|
B |-----------------------------------------------------------------|
G |-5---------------7---------------4-------------------------------|
D |-5---------------7---------------4-------------------------------|
A |-3---------------5---------------2-------------------------------|
E |-----------------------------------------------------------------|



Där har ni alla pusselbitar till låten. Nu är det bara för er att bygga ihop den. 
Höll på att glömma: låten sl*tar på ett Em. Enjoy!
            
Hard to play? Try these video lessons and learn fast. | Correct




comments powered by Disqus
↑ Back to top | Tablatures and chords are parodies/interpretations of the original songs. You may use it for private study, scholarship, research or language learning purposes only