» » »

Ultimate Fakebook, When I'm With You, I'm Ok Bass tabs (ver.1)

Artists:  A B C D E F G H I J K L M N O P Q R S T U V W X Y Z # 

When I'm With You, I'm Ok Bass tabs (ver.1)

Ultimate Fakebook Tabs
 Rating:
4/5 (4 votes)
When I'm With You, I'm Ok lessons Tabs too difficult? Try these video lessons and learn fast
1
                Artist	Ultimate Fakebook
Song	When I'm With You, I'm OK

standard tuning


Intro
1|--------------------------------------------|
2|--------------------------------------------|
3|-5555-5555-----------5555-5555--------------|
4|-----------3333-3333-----------3333-333-0~--|

Verse
1|----------------------------------------------------------------
2|----------------------------------------------------------------
3|-55555555----------55555555----------22222222-----------55----2-
4|----------33333333----------55555555----------3333333-55--3-55--
COnt.
1|-------------------------------------------------------------|
2|------------------------------------------------------44-----|
3|-55555555----------55555555----------22222222---------22-5~--|
4|----------33333333----------55555555----------3333333----3~--|

Pre-Chorus
1|----------------------------77----------------|
2|----------------------3/5-55--55--------------|
3|-2-22-2--------2-22-2---------------------22--|
4|--------3-33-3-------------------3333-3335----|

Intro	2x|---------------------|Verse	1x
	  |---------------------|Pre-Chorus	1x
	  |-5555-5555-----------|
	  |-----------3333-3333-|

Chorus	         2x
1|---------------------|---------------------------------------|
2|---------------------|---------------------------------------|
3|-5555-5555-----------|-22222222-------------------5-55-------|
4|-----------3333-3333-|----------33333333-55555555------3-5~--|

  REST	   2x
|-----|-5~-------|----------------------------------------------
|-----|---5~-----|----------------------------------------------
|-----|-----5~---|-22222222----------5555555----------22222222--
|-----|-------5~-|----------33333333---------55555555-----------
Cont.             a lot
1|-------------|----------|
2|-------------|----------|
3|-------------|----------|
4|-33333333--5-|--5-55-5--|

Guitar Solo(Chorus)	2x

Then:
1|----------------------------------77--------------------------|
2|----------------------------3/5-55--55------------------------|
3|-22222222----------22222222------------22222222---------------|
4|----------33333333------------------------------33333333-5555-|
		       3x
1|-----------|---------------------|
2|-----------|---------------------|
3|-----------|-5555-5555-----------|
4|-3333-3333-|-----------3333-3333-|

Ending		       4x
1|---------------------------------|-----------------------|
2|---------------------------------|-----------------------|
3|-555-555-------------------------|-------------------3~--|
4|---------000-000-333-333-555-555-|-33-3-3-3-555-5-5------|

PLease rate this tab. Thanks
            
Submit corrections

comments powered by Disqus
↑ Back to top | Ultimate Fakebook Bass for When I'm With You, I'm Ok. Lyrics for acoustic guitar and electric guitar. 1 Tablatures and chords are parodies/interpretations of the original songs. You may use it for private study, scholarship, research or language learning purposes only