» » »

Ultimate Fakebook, She Don't Even Know My Name Tabs (ver.1)

Artists:  A B C D E F G H I J K L M N O P Q R S T U V W X Y Z # 

She Don't Even Know My Name Tabs (ver.1)

Ultimate Fakebook Tabs
 Rating:
4.2/5 (5 votes)
She Don't Even Know My Name lessons Tabs too difficult? Try these video lessons and learn fast
                / - slide up
\ - slide down
x after note - quick stop
x after number - # of times to repeat
b - bend
p - pull off
h - hammer on
xx - mute by strumming with fingers on fretboard lightly off
~x - hold note for a little then stop abruptly
p.m .. - palm mute
.. .. - which note(s) to palm mute


     intro 2x (she don't even know my name, she won't even look my way..)
e|-----------------------------------------------------------------------|
B|-----------------------------------------------------------------------|
G|-3~----8~---333---------888--------------------------------------------|
D|-3~3~5~8~---333-333-555-888--------------------------------------------|
A|-1~3~5~6~---111-333-555-666--------------------------------------------|
E|---1~3~---------111-333------------------------------------------------|

      verse 2x     verse pt.2 
e|--------------|--------------------------------------|
B|--------------|--------------------------------------|
G|-3-----8------|-3-----8-333333333333-----------------|
D|-3-3-5-8------|-3-3-5-8-333333333333-----------------|
A|-1-3-5-6------|-1-3-5-6-111111111111-----------------|
E|---1-3--------|---1-3--------------------------------|

     chorus 
e|---------------------------------------------------------|
B|---------------------------------------------------------|
G|------8-8-83-3-38-8--3-3-37-7------5-555-8-888-----------|
D|-5-5-58-8-83-3-38-8--3-3-37-7--5-5-5-555-8-888-----------|
A|-5-5-56-6-61-1-16-6--1-1-15-5--5-5-3-333-6-666-----------|
E|-3-3-3-------------------------3-3-----------------------|

    chorus (cont.)
e|----------------------------------------------------|
B|----------------------------------------------------|
G|------8-8-83-3-38-8-5~~-----------------------------|
D|-5-5-58-8-83-3-38-8-5~~-----------------------------|
A|-5-5-56-6-61-1-16-6-3~~-----------------------------|
E|-3-3-3----------------------------------------------|

    intro 2x (she looks at me, her eyes...)
    verse 2x
    verse pt. 2 1x
    chorus (all of it)
    
    pre-bridge   (underfined strumming but these are the notes)
e|------------------------------------------------------------|
B|------------------------------------------------------------|
G|--3---------7-----------------------------------------------|
D|-------5---------8------------------------------------------|
A|-1-1--3-3--5-5--6-6-----------------------------------------|
E|------------------------------------------------------------|


    (cont.) (most strumming not defined)
e|-------------------------------------------------------------|
B|-------------------------------------------------------------|
G|----------------------3-5-7----------------------------------|
D|--8--8-8-----10-10----3-5-7----8--8--8-(for a while)---------|
A|-6-66-6-6---8-88-88---1-3-5---6-66-66------------------------|
E|-------------------------------------------------------------|

   (cont.2)
e|-----------------------------------------------------------|
B|-----------------------------------------------------------|
G|---------------8-88-5-55--8-88--10-1010--------------------|
D|-5-555--3-333--8-88-5-55--8-88--10-1010--8\----------------|
A|-5-555--3-333--6-66-3-33--6-66--8--8-8---8\----------------|
E|-3-333--1-111----------------------------6\----------------|

    bridge
e|--------------------------------------------------------------------|
B|-------10/13-11--8/11-8-------------------8/10-8--------------------|
G|----10-----------------10-----------------------10------------------|
D|--8----------------------8/10-12-12-10-8-8--------8/10-12-----------|
A|--------------------------------------------------------------------|
E|--------------------------------------------------------------------|
      
   thing after 6x
e|-------------------|---------------------------------------------------|
B|-------------------|---------------------------------------------------|
G|-333----------888--|-5~------3--5--777777-888888-888-------------------|
D|-333-333-555--888--|-5~-3~---3--5--777777-888888-888(for a while)------|
A|-111-333-555--666--|-3~-3~---1--3--555555-666666-666-------------------|
E|-----111-333-------|----1~---------------------------------------------|
p.m... ... ...  .. 

    then... 
e|------------------------------------------------|
B|------------------------------------------------|
G|-5555---3-5-7-777-888888888888-5----------------|
D|-5555---3-5-7-777-888888888888-5----------------|
A|-3333---1-3-5-555-666666666666-3----------------|
E|------------------------------------------------|

    repeat once but the first notes play once this time and shorten it
e|---------------------------------------------------------------------------|
B|-------------------------------------------------(1st end)-----------------|
G|-5-5--7-7--999999-101010101010----------------------77-77------(second end)|
D|-5-5--7-7--999999-101010101010-(for a while longer)-77-77-------7-7-5-555--|
A|-3-3--5-5--777777-8-8-8-8-8-8-----------------------55-55-------7-7-5-555--|
E|----------------------------------------------------------------5-5-3-333--|

   ending 4x
e|--------------------------------------|
B|--------------------------------------|
G|-3--------8\--------------------------|
D|-3--3--5--8\--------------------------|
A|-1--3--5--6\--------------------------|
E|----1--3------------------------------|
    
  last verse 4x
e|------------------------------------------------------------|
B|------------------------------------------------------------|
G|-333---------888------------------3~~-----------------------|
D|-333-333-555-888-----then end on -3~~-----------------------|
A|-111-333-555-666------------------1~~-----------------------|
E|-----111-333------------------------------------------------|

Pretty Simple, Have a go at it.
            
Submit corrections

comments powered by Disqus
↑ Back to top | Ultimate Fakebook Tabs for She Don't Even Know My Name. Lyrics for acoustic guitar and electric guitar. Tablatures and chords are parodies/interpretations of the original songs. You may use it for private study, scholarship, research or language learning purposes only