» » »

Ultimate Fakebook, Little Apple Girl Tabs (ver.1)

Artists:  A B C D E F G H I J K L M N O P Q R S T U V W X Y Z # 

Little Apple Girl Tabs (ver.1)

Ultimate Fakebook Tabs
 Rating:
4/5 (4 votes)
Little Apple Girl lessons Tabs too difficult? Try these video lessons and learn fast
                 -------------------------------------------------------------------


/ - slide up
\ - slide down
x after note - quick stop
x after number - # of times to repeat
b - bend
p - pull off
h - hammer on
v - vibrato (light up and down bend)
xx - mute by strumming with fingers on fretboard lightly off
~x - hold note for a little then stop abruptly
p.m .. - palm mute
.. .. - which note(s) to palm mute


     intro 2x            (second time hold out this)
e|----------------------------------|---------------------|
B|----------------------------------|---------------------|
G|---------676--7-77-777------------|---------------------|
D|-776-976-6----7-77-777------------|-7~~-----------------|
A|-7---9---4----5-55-555------------|-7~~-----------------|
E|-5---7----------------------------|-5~~-----------------|
   
   during this hold, you can give it some feed back..
   (this is the verse, with just drums and bass)

   suddenly..(pre-chorus)
e|---------------------------------------------------------------------------|
B|---------------------------------------------------------------------------|
G|-------6x-7-77-777----------6-6-666---------7-7-777-7777777777-------------|
D|-7x-9x-6x-5-55-555--7-7-777-6-6-666-4-4-444-7-7-777-7777777777-------------|
A|-7x-9x-4x-5-55-555--7-7-777-4-4-444-4-4-444-5-5-555-5555555555-------------|
E|-5x-7x--------------5-5-555---------2-2-222--------------------------------|

    chorus 2x
e|---------------------------------------------------------------------------|
B|---------------------------------------------------------------------------|
G|--------------------------7-77-777--------------------77-7--99-9-----------|
D|-6/7-777-2-22222--6/7-777-7-77-777--6/7-7777-9-99-999-77-7--99-9-----------|
A|-6/7-777-2-22222--6/7-777-5-55-555--6/7-7777-9-99-999-55-5--77-7-----------|
E|-4/5-555-0-00000--4/5-555-----------4/5-5555-7-77-777----------------------|

    do the intro 2x and then hold out the note to do the verse again

e|---------------------------------------------------------------|
B|---------------------------------------------------------------|
G|-------6x-7-77-777----------6-6-666---------7-77-7-------------|
D|-7x-9x-6x-5-55-555--7-7-777-6-6-666-4-4-444-7-77-7-------------|
A|-7x-9x-4x-5-55-555--7-7-777-4-4-444-4-4-444-5-55-5-------------|
E|-5x-7x--------------5-5-555---------2-2-222--------------------|

   do the chorus 2x

    bridge
e|---------------------------------------------------------------------------|
B|---------------------------------------------------------------------------|
G|-------------------77-77-77-77------------------9-9-999-7-77-777-----------|
D|-4-4-444-4-44-444--77-77-77-77-4-4-444-4-44-444-9-9-999-7-77-777-----------|
A|-4-4-444-4-44-444--55-55-55-55-4-4-444-4-44-444-7-7-777-5-55-555-----------|
E|-2-2-222-2-22-222--------------2-2-222-2-22-222----------------------------|

    solo
e|---------------------------------------------------------------------------|
B|---------------------------------------------------------------------------|
G|-7b--7b-7-6h7p6h7-7b-7-6h7-------------------------------------------------|
D|--------------------------7--57-57-57-7------------------------------------|
A|---------------------------------------7-5-7-5-57575-7--5v-----------------|
E|---------------------------------------------------------------------------|

    solo (cont.)
e|-------------------------------------12---------------------------|
B|-------------------------------13/15---15-13----------------------|
G|--9/12-12-12-12p9-9-12-14p12h14-------------14---12-14------------|
D|-----------------------------------------------14-----------------|
A|------------------------------------------------------------------|
E|------------------------------------------------------------------|

                                        the rest is just messing around
                                         with these notes. listen to the song 
	even more continued!!!!		and you'll get it use h and p
e|--//17-17-1717-17-21b-21-17-15-17-17-|----17-15-----------------------------|
B|-------------------------------------|---------17---------------------------|
G|-------------------------------------|--------------------------------------|
D|-------------------------------------|--------------------------------------|
A|-------------------------------------|--------------------------------------|
E|-------------------------------------|--------------------------------------|
 
    solo ends on this  
e|-----17v\-------------|
B|----------------------|
G|----------------------|
D|----------------------|
A|----------------------|
E|----------------------|

    intro verse 1x
e|--------------------------------------------------------|
B|--------------------------------------------------------|
G|---------676-7x-----------------------------------------|
D|-776-976-6---7x-----------------------------------------|
A|-7---9---4---5x-----------------------------------------|
E|-5---7--------------------------------------------------|
   
   ending chorus
e|---------------------------------------------------------------------------|
B|---------------------------------------------------------------------------|
G|------------------------------7-7-777--------------------------------------|
D|-7-7-777-2-2-222-6/7-7-77-777-7-7-777-6/7-77777-9-99-999-77-7-99-9---------|
A|-7-7-777-2-2-222-6/7-7-77-777-5-5-555-6/7-77777-9-99-999-77-7-99-9---------|
E|-5-5-555-0-0-000-4/5-5-55-555---------4/5-55555-7-77-777-55-5-77-7---------|
 
   cont.
e|---------------------------------------------------------------------------|
B|---------------------------------------------------------------------------|
G|--------------------------7-77-777--------------------77-7--99-9-77-7-99-9-|
D|-6/7-777-2-22222--6/7-777-7-77-777--6/7-7777-9-99-999-77-7--99-9-77-7-99-9-|
A|-6/7-777-2-22222--6/7-777-5-55-555--6/7-7777-9-99-999-55-5--77-7-55-5-77-7-|
E|-4/5-555-0-00000--4/5-555-----------4/5-5555-7-77-777----------------------|

     end
e|-------------------------------------------------------------|
B|-------------------------------------------------------------|
G|-------------------7-----------------------------------------|
D|-------------------7-7x--------------------------------------|
A|-------------------5-7x--------------------------------------|
E|-4h5-5-4h5-5-4h5-5---5x--------------------------------------|

that was hard. the solo might be wrong but its tooo fast to tell, so i hope the rest is right....
            
Submit corrections

comments powered by Disqus
↑ Back to top | Ultimate Fakebook Tabs for Little Apple Girl. Lyrics for acoustic guitar and electric guitar. Tablatures and chords are parodies/interpretations of the original songs. You may use it for private study, scholarship, research or language learning purposes only